Gametabs
Home
Tabs
Random

Laconia

Average rating: 5.000

1 ratings

Composer:

Tabber:

Style:

Instrument:

Created: September 12, 2011 at 12:00 AM

                                 Battle of Olympus - Laconia GUITAR TAB
                            Composed by Kazuo Sawa

                    Tabbed by Auriplane  ([email protected])



Standard tuning.  Let me know if you want the other parts transcribed.

e |------------------|------------------|------------------|------------------|
B |------------------|---------8--10-11-|10-8-----8--------|------------------|
G |---------7--9--10-|7--9--10----------|------10----10-9--|10-9--7-----------|
D |7--9--11----------|------------------|------------------|---------11-------|
A |------------------|------------------|------------------|------------------|
E |------------------|------------------|------------------|------------------|


e |------------------|------------------|------------------|------------------|
B |------------------|8-----------8--10-|11-10-8--10-8-----|8-----8--10-------|
G |10-9--7-----7--9--|---10--9-10-------|---------------10-|---10-------------|
D |---------11-------|------------------|------------------|------------------|
A |------------------|------------------|------------------|------------------|
E |------------------|------------------|------------------|------------------|


e |------------------|------------------|------------------|------------------|
B |------------------|---------8--10-11-|10-8-----8--------|------------------|
G |---------7--9--10-|7--9--10----------|------10----10-9--|10-9--7-----------|
D |7--9--11----------|------------------|------------------|---------11-------|
A |------------------|------------------|------------------|------------------|
E |------------------|------------------|------------------|------------------|


e |------------------|------------------|------------------|------------------|
B |------------------|8-----------8--10-|11-10-8--10-8-----|8-----------------|
G |10-9--7-----7--9--|---10--9-10-------|---------------10-|---10-9--7--------|
D |---------11-------|------------------|------------------|------------------|
A |------------------|------------------|------------------|------------------|
E |------------------|------------------|------------------|------------------|


e |10----10-8-----8--|------------------|------------------|------------------|
B |---10-------8-----|11----11-10-8-----|------8--11-10-8--|------11-10-------|
G |------------------|---10----------10-|9--10-------------|10-9--------------|
D |------------------|------------------|------------------|------------------|
A |------------------|------------------|------------------|------------------|
E |------------------|------------------|------------------|------------------|


e |10----10-8-----8--|------------------|------------------|------------------|
B |---10-------8-----|11----11-10-8-----|------8--11-10-8--|------------------|
G |------------------|---10----------10-|9--10-------------|10-9-----7--------|
D |------------------|------------------|------------------|------11----------|
A |------------------|------------------|------------------|------------------|
E |------------------|------------------|------------------|------------------|





                                   ALTERNATE TAB


e |------------------|------------------|------------------|------------------|
B |------------------|------------10-11-|10----------------|------------------|
G |------------9--10-|---9--10-12-------|---12-10-12-10-9--|10-9--------------|
D |---9--11-12-------|12----------------|------------------|------12-11-------|
A |12----------------|------------------|------------------|------------------|
E |------------------|------------------|------------------|------------------|


e |------------------|------------------|------------------|------------------|
B |------------------|---------------10-|11-10----10-------|---------10-------|
G |10-9-----------9--|12-10--9-10-12----|------12----12-10-|12-10-12----------|
D |------12-11-12----|------------------|------------------|------------------|
A |------------------|------------------|------------------|------------------|
E |------------------|------------------|------------------|------------------|


e |------------------|------------------|------------------|------------------|
B |------------------|------------10-11-|10----------------|------------------|
G |------------9--10-|---9--10-12-------|---12-10-12-10-9--|10-9--------------|
D |---9--11-12-------|12----------------|------------------|------12-11-------|
A |12----------------|------------------|------------------|------------------|
E |------------------|------------------|------------------|------------------|


e |------------------|------------------|------------------|------------------|
B |------------------|---------------10-|11-10----10-------|------------------|
G |10-9-----------9--|12-10--9-10-12----|------12----12-10-|12-10-9-----------|
D |------12-11-12----|------------------|------------------|---------12-------|
A |------------------|------------------|------------------|------------------|
E |------------------|------------------|------------------|------------------|


e |10----10----------|------------------|------------------|------------------|
B |---10----13----13-|11----11-10-------|---------11-10----|------11-10-------|
G |------------12----|---10-------12-10-|9--10-12-------12-|10-9--------------|
D |------------------|------------------|------------------|------------------|
A |------------------|------------------|------------------|------------------|
E |------------------|------------------|------------------|------------------|


e |10----10----------|------------------|------------------|------------------|
B |---10----13----13-|11----11-10-------|---------11-10----|------------------|
G |------------12----|---10-------12-10-|9--10-12-------12-|10-9--------------|
D |------------------|------------------|------------------|------11-12-------|
A |------------------|------------------|------------------|------------------|
E |------------------|------------------|------------------|------------------|


        
Comments

No comments yet