Gametabs
Home
Tabs
Random

Theme B

Average rating: 5.000

5 ratings

Composer:

Tabber:

Style:

Created: September 30, 2007 at 12:00 AM

            Tetris Theme B
~Tetris: NES Version~
Arranged By: Justin Lincoln                                 

Drop D Tuning

     E  S S E  E  E  S S E  E     E  S S E  E  E  S S E  E
E||----------------------------|----------------------------|
B||--3--3-3-------3--3-3-------|--3--3-3-------3--3-3-------|
G||---------2--2---------2--2--|---------2--2---------2--2--|
D||----------------------------|----------------------------|
A||---------0------------0-----|---------0------------0-----|
D||--0------------0------------|--0------------0------------|

  E  E  E  E  E  S S E  E     E  S S E  E  E  S S E  E
---------------------------|----------------------------|
--------3--2--3------------|-------------------------2--|
-----2-----------2-2-3--0--|--2------0------------------|
--0------------------------|-----3-3----2--3--0-0-2-----|
--------0------------0-----|---------0------------0-----|
--0-----------0------------|--0------------0------------|

  E  E  E  E  E  E  E  E     E  E  E  E  E  S S E  E
-----------------------0--|---------------------------|
--3--------2--3-----------|--------3--2--3------------|
-----2--3--------2--3-----|-----2-----------2-2-3--0--|
--------------------------|--0------------------------|
--------0-----------0-----|--------0------------0-----|
--0-----------0-----------|--0-----------0------------|

  E  S S E  E  E  S S E  E     E  E  E  E  E  E  E  E     Q    Q    Q    E  E
----------------------------|-----------------------0--|-----------------0-----|
-------------------------2--|--3--------2--3-----------|--3-----------------2--|
--2------0------------------|-----2--3--------2--3-----|--2--------------------|
-----3-3----2--3--0-0-2-----|--------------------------|-----------------------|
---------0------------0-----|--------0-----------0-----|-------0---------0-----|
--0------------0------------|--0-----------0-----------|--0---------0----------|

  Q    Q    Q    Q       E  S S E  E  E  S S E  E     Q    Q    Q    Q
----------------------|----------------------------|----------------------|
--3-------------------|----------------------------|----------------------|
--2-------------------|---------0------------0-----|-----------------0----|
-----------------2----|--3--3-3----2--3--3-3----2--|--3-------------------|
-------0---------0----|---------3------------3-----|-------3---------3----|
--0---------0---------|--3------------3------------|--3---------3---------|

  E  S S E  E  E  S S E  E     Q    Q    Q    Q       E  S S E  E  E  E  E  E
----------------------------|----------------------|---------------------------|
----------------------------|-----------------0----|--1--1-1-1--1--3--1--1--0--|
--2--2-2-3--0--2--2-2-3--0--|--2-------------------|------------0--2-----2-----|
----------------------------|----------------------|---------2-----3-----3-----|
---------3------------3-----|-------3---------3----|--3------3-----------------|
--3------------3------------|--3---------3---------|---------------------------|

  E  S S E  E  E  E  E  E     E  S S E  E  E  S S E  E
---------------------------|----------------------------|
--1--1-1-1--1--3--1--1--0--|--1--1-1-1--1--0--0-0-0--0--|
------------0--1-----1-----|----------------------------|
---------2-----3-----3-----|--2------2-----0------0-----|
--3------3-----------------|--3------3-----3------3-----|
---------------------------|----------------------------|

  E  S S E  E  E  E  E  E     E  S S E  E  E  S S E  E
---------------0--1--3-----|--3--1-1----1---------------|
------------------------1--|---------1--------1-3-1-----|
--3--3-3-3--0--0-----------|--2------2-----2---------2--|
--0------2-----------------|----------------------------|
--3------3-----3-----3-----|----------------------------|
---------------------------|--0------0-----0------0-----|

                              1st Ending----------------
  E  S S E  E  E  S S E  E     E  S S E  E  E  S S E  E
--3--1-1----1---------------|----------------------------|
---------1--------1-3-1-----|--1-------------------------|
--1------1-----1---------1--|----------------------------|
----------------------------|----------------------------|
----------------------------|--3--3-3-3--3--3--3-3-3--3--|
--0------0-----0------0-----|----------------------------|

                            2nd Ending---------
                              ^
  E  S S E  E  Q    Q         W
--------------------------||-------------------||
--------------------2-----||--1----------------||
--------------------0----*||--0----------------||
-------------------------*||--2----------------||
--3--3-3-3--3--3----------||--3----------------||
--------------------2-----||-------------------||

Duration Legend
---------------
W - whole
H - half
Q - quarter
E - 8th
S - 16th
T - 32nd
X - 64th
. - note dotted
|-n-|  - n-tuplets

Tablature Legend
----------------
^ - brush up

        
Comments

@Anonymous (June 21, 2007 at 10:32 PM)

This is madness, I say.


@AnuxTheWise (July 20, 2007 at 6:59 PM)

Madness? This is not madness. This is TETRIIIIIIIIIIIS.


@jz7878 (October 24, 2007 at 9:05 PM)

I agree


@Supreme Dirt (September 28, 2008 at 2:18 AM)

This is Brilliance, I say. Takes a bit to get the tuning of D right, for me anyway.


@SirLancelot (October 11, 2012 at 9:18 PM)

You guys on gametabs are so generous to be giving away all these tabs for free. I've gotten some of my favorite pieces off this site.