Gametabs
Home
Tabs
Random

Theme A

Average rating: 5.000

13 ratings

Composer:

Tabber:

Style:

Created: January 26, 2008 at 12:00 AM

            Tetris Theme A                                  
~Tetris~
"Dance of the Sugar Plum Fairy"
Composed by: Pyotr Ilyich Tchaikovsky 
Arranged by: Justin Lincoln

Drop D Tuning

Briskly  bpm=140



     Q    Q       Q    Q       Q    Q       Q    Q       Q    E  E   
E||-------1----|-------1----|-------1----|-------1----|-------1-----|
B||-------3----|-------3----|-------3----|-------3----|----------3--|
G||-------2----|-------2----|-------2----|-------2----|-------2-----|
D||------------|------------|------------|------------|----------3--|
A||------------|------------|------------|------------|-------------|
D||--0---------|--0---------|--0---------|--0---------|--0----------|


    Q    Q       Q    Q       E  E  Q       E  E  Q       E  E  Q     
|---1----0----|------------|-------------|-------------|-------------|
|-------------|--2----3----|-------------|--0--0--0----|-------------|
|*--2----0----|-------1----|--5--5--5----|--0--0--0----|--3--3--3----|
|*------------|--2----3----|--4--4--4----|-------------|--2--2--2----|
|-------------|------------|-------------|-------------|-------------|
|---0---------|--0---------|--0----------|--0----------|--0----------|

                 1st Ending ----------------
  E  E  E  E     Q    S S S S    Q    E  E     Q    Q       Q    Q     
--------------|-------1-0-----|-------------|------------|--0---------|
-----3-----3--|-----------3-1-|--0----3--0--|--3----2----|--2----3----|
--2-----3-----|--2------------|--1----------|--0---------|-------2----|
--3-----5-----|--3------------|-------------|------------|--3---------|
--------------|---------------|-------2-----|-------0----|------------|
--0-----0-----|--0------------|-------------|------------|-------3----|


  E  E  Q       E  E  Q       E  E  Q       E  E  E  E     Q    S S S S  
--1--1--1----|--0--0--0----|-------------|-----0-----0--|---------------|
--3--3--3----|--1--1--1----|--3--3--3----|--2-----3-----|--2--------0-2-|
-------------|-------------|--4--4--4----|--2-----4-----|--2----1-2-----|
-------------|-------------|-------------|--------------|---------------|
-------------|-------------|-------------|--0-----0-----|--0------------|
--2----------|--2----------|--2----------|--------------|---------------|

                  2nd Ending------------------
  Q    E  E       Q    S S S S    Q    E  E     Q    S S S S    Q    E  E   
-------1------||---------------|-------------|---------------|-------------|
--3-------3---||-------3-1-0---|-------3--0--|--3----2-0-----|-------------|
-------2-----*||--2----------2-|--1----1-----|--1--------2-1-|-------5--2--|
----------3--*||--3------------|-------------|---------------|--4----4-----|
--------------||---------------|-------------|-------0-------|-------------|
--0-----------||--0------------|--2----------|---------------|--0----------|

                                                          FINE
                                                          ^         
  Q    S S S S    Q    E  E     Q    Q       Q    Q       H         
---------------|-------------|------------|------------|-----------|
-------0-------|-------------|------------|------------|--3--------|
--5------2-0---|-------3--0--|--3----2----|-------2----|--2--------|
--4----------3-|--2----2-----|--2----3----|-------2----|--3--------|
-------0-------|--3----------|-------0----|-------0----|-----------|
---------------|-------------|------------|------------|--0--------|


                                                         NH    
    E  E  E  E     E  E  E  E     E  E  E  E     Q       Q     
|---------------|--0--0--1--1--|--3--3--------|--0------12----|
|---2--2--3--3--|--2--2--3--3--|--5--5--3--3--|--2------------|
|*--2--2--4--4--|--------------|--------4--4--|--2------------|
|*--------------|--------------|--------------|---------------|
|---0--0--0--0--|--0--0--0--0--|--0--0--0--0--|--0------------|
|---------------|--------------|--------------|---------------|


  |--3--|  |--3--|     |--3--|  |--3--|     |--3--|  |--3--|   
  E  E  E  E  E  E     E  E  E  E  E  E     E  E  E  E  E  E   
--------------------|--------------------|--------------------|
-----------2--------|--3-----------------|-----------0--------|
--------2--------2--|--------2--------2--|--------0--------0--|
-----3--------3-----|-----3--------3-----|-----2--------2-----|
--------------------|--------------------|--3--------3--------|
--0--------0--------|--0--------0--------|--------------------|

          AH
  Q       Q         E  E  E  E     Q      Q       E  E  E  E     Q      Q     
----------------||--------------|--0-----------|--------0--0--|--1-----------|
--1------13-----||--2--2--3--3--|--2-----------|--3--3--2--2--|--3-----------|
---------------*||--2--2--4--4--|-------1g2----|--4--4--------|-------1g2----|
---------------*||--------------|--------------|--------------|--------------|
--3-------------||--0-----------|---------0----|--0-----------|---------0----|
----------------||--------------|--------------|--------------|--------------|

                                              D.C. al FINE
  E  E  E  E     Q      Q       E  E  E  E     H          
--0--0--1--1--|--3-----------|--1--1--3--3--|--5--------||
--2--2--3--3--|--5-----------|--3--3--5--5--|--6--------||
--------------|-------1g2----|--------------|-----------||
--------------|--------------|--------------|-----------||
--0-----------|---------0----|--0--0--0--0--|--0--------||
--------------|--------------|--------------|-----------||




Duration Legend
---------------
W - whole
H - half
Q - quarter
E - 8th
S - 16th
T - 32nd
X - 64th
. - note dotted
|-n-|  - n-tuplets


Tablature Legend
----------------
g - grace note
NH - natural harmonic
AH - artificial harmonic
v - brush down
D.C. al FINE - Play from the beginning and stop at the end of the measure marked FINE

        
Comments

@archard (January 26, 2008 at 11:37 PM)

No way. That is so sweet I can't even put it into words.


@nozzie (January 27, 2008 at 1:56 AM)

You Be-eth my hero!


@BluePhoenix (May 25, 2008 at 3:00 AM)

what's a grace note?


@TheDoomOfAllFires (August 28, 2008 at 2:52 PM)

Are you God? XD !!! Thank you !


@Nemus (January 15, 2011 at 3:07 AM)

Wow man that was a blast to the past XD this tab is perfect


@Crazy Cale (May 24, 2011 at 10:43 PM)

your kungfu is best


@isa iv (July 07, 2011 at 3:12 AM)

you make a tetris on that tab man incredible the only best nes tetris tab on the tetris nes platform

sorry for the twisting toungue there


@isa iv (July 08, 2011 at 12:23 AM)

the composer name is Piotr Ilitch Tchaikovsky i search for it