Gametabs
Home
Tabs
Random

Main Theme

Average rating: 5.000

1 ratings

Composer:

Tabber:

Style:

Created: July 27, 2013 at 12:00 AM

              Main Theme    -    TETRIS (Mirrorsoft version 1987 for Atari ST / ZX Spectrum / MSX & more...)

 Music by David Whittaker, guitar arr. by Diralark

Std Tuning, let ring, Tempo= 93

Part 1 :

    T=93                                                          X      T=88  
               >          ^         >                 >           ^
      E  E  E  Q    E     E   E  E  Q.       E  E  E  Q.          E   E   E   Q.       
E||--------------------|--1p--0-----------|-------------------|-----------------------|
B||------0-----3-------|------------0-----|-----0-----1~------|------12------13~------|
G||*--0-----0-------0--|---------0--------|--0-----0----------|--12------12--10-------|
D||*-------------------|------------0-----|-----------3-------|-----------------------|
A||------------2-------|------------------|-------------------|--10-------------------|
E||---3----------------|--3---------------|--3----------------|-----------------------|
   [3/4]

    T=93                                                                T=88 
               >          ^        >                  >           ^    
      E  E  E  Q    E    E  E  E  Q.        E  E  E  Q.           E   E   E   Q.  
   |-------------------|--1--0------------|-------------------|------10------12~------|
   |-----0-----3-------|-----------0------|-----0-----1~------|--12------12---0-------|
   |--0-----0-------0--|--------0---------|--0-----0----------|---0-------------------|
   |-------------------|-----------0------|-----------3-------|-----------------------|
   |-----------2-------|------------------|-------------------|-----------------------|
   |--3----------------|--3---------------|--3----------------|-----------------------|


  T=93                                                                T=88                 T=78        
                                                              XII(4)                 --
            >                  >                                ^ 
   E  E  E  Q.        E  E  E  Q.        E   E   E   Q.         E   E   E   Q.         E   E   E   Q.         
|------------------|------------------|--0------------------|--12------12----------|--12------12----------||
|--------0--1------|-----0-----1------|---------12--13~-----|------12------13~-----|------12------13~-----||
|-----0------------|--------0---------|-----12-------0------|----------------------|---------------------*||
|--2---------------|--2---------------|---------------------|---9------------------|---------------------*||
|------------------|--2--------3------|---------------------|----------------------|----------------------||
|--0--------3------|------------------|--0------------------|----------------------|----------------------||


Part 2 :

     T=93              
     >                    >                    >                    >                    
     E  E  E  E  E  E     E  E  E  E  E  E     E  E  E  E  E  E     E  E  E  E  E  E     
||---------------------|--------------------|--------------------|---------------------||
||---1--0-----------0--|--1--0-----------0--|--1--0-----------0--|--1--0-----------0---||
||*--------0-----0-----|--------0-----0-----|--------0-----0-----|--------0-----0-----*||
||*-----------2--------|-----------2--------|-----------0--------|-----------0--------*||
||---3--------3--------|--3--------3--------|--------------------|---------------------||
||---------------------|--------------------|--3--------3--------|--3--------3---------||

     
Part 3 :

T=94 D7(V)    D              C#7(IV)  C#          
     >        >              >        >           
     E  E  E  E  E  E        E  E  E  E  E  E     
||----------------------||----------------------||
||---7-----7--7-----7---||---9-----9--9-----9---||
||*--5--5-----7--7-----*||*--7--7-----9--9-----*||
||*--7--7--7--7--7--7--*||*--9--9--9--9--9--9--*||
||---5------------------||---7------------------||
||----------------------||----------------------||


Part 4 :

     T=95                                     III                 
     >        >           >        >           >        >            >          >       
     E  E  E  E  E  E     E  E  E  E  E  E     E  E  E  E  E  E      E   E  E   E   E  E 
||---------------------|--------------------|--------3--------3--|----------8----------8---||
||---------------------|--------1--------1--|-----5--------5-----|------10---------10------||
||*--------0--------0--|-----2--------2-----|--5--------5--------|--10---------10---------*||
||*-----2--------2-----|--3--------3--------|--------------------|------------------------*||
||---3--------3--------|--0-----------------|--------------------|---0---------------------||
||---3-----------------|--------------------|--3-----------------|-------------------------||


Part 5 :

    Fade 'till the end      Da Capo                  
     E  E  E  E  E  E   4x       
||----------------------||------||
||----------------------||------||
||*--------0--------0--*||------||
||*-----2--------2-----*||------||
||---3--------3---------||------||
||---3------------------||------||


Legend
---------------
Q - quarter
E - 8th
. - note dotted
L - tied note
> - accentuded note
p - pull off
~ - vibrato
^ - brush up

OST : https://www.youtube.com/watch?v=8PyTKOD-u2Y

Note  : Normally Part 1 is played 1 octave up ( the 2nd time ) but I simplified to a repeating,
        Part 3 isn't accurate coz I just understood nothing there, & Part 4 is detuned to be playable

Bonus : Here's Mini Tutorial about: 
       
          How to build an ATARI ST arr. 

1. u need a rom of the game, use google to find it ;-)

2. u need Saint emulator
[http://leonard.oxg.free.fr/SainT/saint.html]
to create a chiptune file, lauch the game , then YM 
record ON when music start, don't forget record OFF , 
u just ripped it -(^_^)-

3. Now u need a player called STSOUND
[http://leonard.oxg.free.fr/download/stsound.zip]
If you are lucky the melody track & bass track are 
separate, so u can hear it separatly, select channel A, 
B, & C ON/OFF as u wish  ^^

Alternativly STSOUND can also create a Wav file , it's 
usefull to play it in a music player including 
looper/slower/detuner functions as AIMP or  
RiffMaster Pro  [http://www.aimp.ru/index.php?do=download]

4. Finally the best part, wrote note after note by 
ear ^^  ofc a music editor can help a lot : Guitar pro 5, 
Tuxguitar
[http://tuxguitar.herac.com.ar/download.html]

        
Comments

@ForestMarth (July 27, 2013 at 2:46 PM)

Hey ! Awesome tab !!

Thanks a lot for the "Mini Tutorial" ! I didn't know how to create WAV files from a rom.

Is it your first arrangement made by ear ?