Gametabs
Home
Tabs
Random

Theme A

Average rating: No ratings

Composer:

Tabber:

Style:

Created: September 29, 2007 at 12:00 AM

            Guitar 1
      E.  T T  E   E   E   S  S  E   E      E.  T T  E   E   E.  T T  E   E
E||--12---L---------------12------------|-------------------12---L-----------|
B||-------L---12--13--15-----15-13--12--|---------------13-----------15--13--|
G||-------------------------------------|--14---L---14-----------------------|
D||-------------------------------------|------------------------------------|
A||-------------------------------------|------------------------------------|
E||-------------------------------------|------------------------------------|

   E  E   E   E   E.  T T  E.  T T     E.  T T  E.  T T  Q.     S S
--------------------------12---L---|--------------------------------|
--12---------13--15---L------------|--13---L------------------------|
---------13------------------------|-----------14---L---14------L---|
-----------------------------------|--------------------------------|
-----------------------------------|--------------------------------|
-----------------------------------|--------------------------------|

  E   Q     E   E  S S  E   E      Q    S. T  E   E  S S  E   E
-----------13--17------15--13--|--12----L--------12--------------|
-----15------------------------|-------------13----------15--13--|
-------------------------------|---------------------------------|
-------------------------------|---------------------------------|
-------------------------------|---------------------------------|
-------------------------------|---------------------------------|

   E  E   E   E   E  E   E  E      E  E   E.  T T  E.  T Q    T
------------------------12-----|--------------------------------|
--12-----12--13--15------------|--13----------------------------|
-------------------------------|---------14---L---14---L--------|
-------------------------------|--------------------------------|
-------------------------------|--------------------------------|
-------------------------------|--------------------------------|

   E.  T T  E   E   E   S  S  E   E      E.  T T  E   E   E.  T T  E   E
--12---L---------------12------------|-------------------12---L-----------|
-----------12--13--15-----15-13--12--|---------------13-----------15--13--|
-------------------------------------|--14---L---14-----------------------|
-------------------------------------|------------------------------------|
-------------------------------------|------------------------------------|
-------------------------------------|------------------------------------|

   E  E   E   E   E.  T T  E.  T T     E.  T T  E.  T T  Q.     S S
--------------------------12---L---|--------------------------------|
--12---------13--15---L------------|--13---L------------------------|
---------13------------------------|-----------14---L---14------L---|
-----------------------------------|--------------------------------|
-----------------------------------|--------------------------------|
-----------------------------------|--------------------------------|

  E   Q     E   E  S S  E   E      Q    S. T  E   E  S S  E   E
-----------13--17------15--13--|--12----L--------12--------------|
-----15------------------------|-------------13----------15--13--|
-------------------------------|---------------------------------|
-------------------------------|---------------------------------|
-------------------------------|---------------------------------|
-------------------------------|---------------------------------|

   E  E   E   E   E  E   E  E      E  E   E.  T T  E.  T Q    T
------------------------12-----|--------------------------------|
--12-----12--13--15------------|--13----------------------------|
-------------------------------|---------14---L---14---L--------|
-------------------------------|--------------L--------L--------|
-------------------------------|--------------------------------|
-------------------------------|--------------------------------|

  E  E  E  E   E  E  E  E     E  E  E  E  E  E  E  E
---------------------------|--------------------------|
---------------------------|--------------------------|
--9------------------------|--------------------------|
--------------10-----------|--9-----------9-----------|
---------------------------|--------------------------|
---------------------------|--------------------------|

   E  E  E  E   E  E  E  E      E  E  E  E  E.  T Q    T
----------------------------|----------------------------|
----------------------------|----------------------------|
----------------------------|----------------------------|
--10------------------------|---------------9---L--------|
---------------12-----------|--11------------------------|
----------------------------|----------------------------|

  E  E  E  E   E  E  E  E     E  E  E  E  E  E  E  E
---------------------------|--------------------------|
---------------------------|--------------------------|
--9------------------------|--------------------------|
--------------10-----------|--9-----------9-----------|
---------------------------|--------------------------|
---------------------------|--------------------------|

   E  E  E  E   E  E  E  E     E  E  E  E  H
----------------------------|-----------------------||
---------------10-----------|--9--------------------||
---------9------------------|-----------------------||
--10------------------------|-----------------------||
----------------------------|-----------------------||
----------------------------|-----------------------||





Guitar 2
      E.  T T E   E   E  S S  E  E     E.  T T E   E   E.  T T  E   E
E||---------------------------------|----------------------------------|
B||--12---L---9--10--12------10--9--|-------------10--13---L---12--10--|
G||---------------------------------|--9---L---9-----------------------|
D||---------------------------------|----------------------------------|
A||---------------------------------|----------------------------------|
E||---------------------------------|----------------------------------|

  E  E  E   E   E.  T T  E.  T T     E.  T T E.  T T Q.     S S
---------------------------------|------------------------------|
--9-----9--10--12---L---13---L---|--10---L----------------------|
-----9---------------------------|-----------9---L---9------L---|
---------------------------------|------------------------------|
---------------------------------|------------------------------|
---------------------------------|------------------------------|

  E   Q     E   E   S  S  E   E      Q    S. T E   E   S  S  E  E
---------------------------------|--------L------------------------|
-----------10--13--13-13-12--10--|--------------------10-----------|
-----10--------------------------|--12----L----9--12-----12-10--9--|
---------------------------------|---------------------------------|
---------------------------------|---------------------------------|
---------------------------------|---------------------------------|

  E  E  E   E   E  E   E  E      E  E  E.  T T E.  T Q    T
-----------------------------|------------------------------|
--9-----9--10--12--9--13--9--|--10--------------------------|
-----9-----------------------|------9--9---L---9---L--------|
-----------------------------|------------------------------|
-----------------------------|------------------------------|
-----------------------------|------------------------------|

   E.  T T E   E   E  S S  E  E     E.  T T E   E   E.  T T  E   E
---------------------------------|----------------------------------|
--12---L---9--10--12------10--9--|-------------10--13---L---12--10--|
---------------------------------|--9---L---9-----------------------|
---------------------------------|----------------------------------|
---------------------------------|----------------------------------|
---------------------------------|----------------------------------|

  E  E  E   E   E.  T T  E.  T T     E.  T T E.  T T Q.     S S
---------------------------------|------------------------------|
--9-----9--10--12---L---13---L---|--10---L----------------------|
-----9---------------------------|-----------9---L---9------L---|
---------------------------------|------------------------------|
---------------------------------|------------------------------|
---------------------------------|------------------------------|

  E   Q     E   E   S  S  E   E      Q    S. T E   E   S  S  E  E
---------------------------------|---------------------------------|
-----------10--13--13-13-12--10--|--------------------10-----------|
-----10--------------------------|--12----L----9--12-----12-10--9--|
---------------------------------|---------------------------------|
---------------------------------|---------------------------------|
---------------------------------|---------------------------------|

  E  E  E   E   E  E   E  E      E  E  E.  T T E.  T Q    T
-----------------------------|------------------------------|
--9-----9--10--12--9--13--9--|--10--------------------------|
-----9-----------------------|------9--9---L---9---L--------|
-----------------------------|------------------------------|
-----------------------------|------------------------------|
-----------------------------|------------------------------|

  E  E  E  E  E  E  E  E     E  E  E  E  E  E  E  E
--------------------------|--------------------------|
--------------------------|--------------------------|
--5-----------------------|--7-----------------------|
--------------7-----------|--------------6-----------|
-----7-----7-----7-----7--|-----7-----7-----7-----7--|
--------------------------|--------------------------|

  E  E  E  E  E  E  E  E     E  E  E  E  E.  T Q    T
--------------------------|---------------------------|
--------------------------|---------------------------|
--------------------------|---------------------------|
--7-----------------------|--------------6---L--------|
-----7-----7--7--7-----7--|--7--7-----7---------------|
--------------------------|---------------------------|

  E  E  E  E  E  E  E  E     E  E  E  E  E  E  E  E
--------------------------|--------------------------|
--------------------------|--------------------------|
--5-----------------------|--7-----------------------|
--------------7-----------|--------------6-----------|
-----7-----7-----7-----7--|-----7-----7-----7-----7--|
--------------------------|--------------------------|

  E  E  E  E  E  E  E  E     E  E  E  E  H
--------------------------|-----------------------||
--------------------------|-----------------------||
--------5-----9-----------|--7--------------------||
--7-----------------------|-----------------------||
-----7-----7-----7-----7--|-----7-----7--7--------||
--------------------------|-----------------------||

        
Comments

@Thor (November 14, 2007 at 4:44 AM)

dude i wish more poeple were like you in the sense that you put legends for duration and what-not