Gametabs
Home
Tabs
Random

Windy World

Average rating: No ratings

Composer:

Tabber:

Style:

Instrument:

Created: April 14, 2013 at 12:00 AM

            Windy World
Tetris Attack
Composed by Masaya Kuzume
Tabbed by hslesperance
4/14/13




Guitar 1

     E  E E  E  +H        +Q   E  Q   E  Q     Q.    Q.   Q     +W
||---------------------|--------------------|----------------|---------|
||o---------10-(10)----|-(10)--9-10--12-10--|--9----10-------|---------|
||--------9------------|--------------------|-------------9--|--(9)----|
||--11-12--------------|--------------------|----------------|---------|
||o--------------------|--------------------|----------------|---------|
||---------------------|--------------------|----------------|---------|


   E E  E  E  +H        +Q    E Q   E Q     Q.    Q.   Q      W
|--------------------|-------------------|-------------9--|---------|
|---------12-(12)----|-(12)--10-9-----9--|-10----12-------|--12-----|
|----9-11------------|-------------11----|----------------|---------|
|-12-----------------|-------------------|----------------|---------|
|--------------------|-------------------|----------------|---------|
|--------------------|-------------------|----------------|---------|


   E  E E  E  +H        +Q   E  Q   E Q     Q.    Q.    Q     +H.      E  E
|--------------------|----------------9--|-10----10--------|----------------|
|---------10-(10)----|-(10)--9-10--12----|-------------10--|-(10)------9-10-|
|-------9------------|-------------------|-----------------|----------------|
|-11-12--------------|-------------------|-----------------|----------------|
|--------------------|-------------------|-----------------|----------------|
|--------------------|-------------------|-----------------|----------------|

                                                1.              2.
   H.       E E    +H      E E E E    W            W               H.      E  E
|---------------|------------------|-----------|--------------||----------------|
|-12-------10-9-|--(9)---------9-9-|-10--------|-------------o||-----------9-10-|
|---------------|---------11-9-----|-----------|--------------||----------------|
|---------------|------------------|-----------|--------------||----------------|
|---------------|------------------|-----------|-------------o||----------------|
|---------------|------------------|-----------|--------------||----------------|


   H.         E E   +H        Q  E  E    H.        E  E   H.          E  E
|-----------------|-------------------|------------9----|------------------|
|-12---------10-9-|-(9)----------9-10-|-12-----------10-|-------------9-10-|
|-----------------|-------------------|-----------------|------------------|
|-----------------|-------------------|-----------------|------------------|
|-----------------|-------------------|-----------------|------------------|
|-----------------|-------------------|-----------------|------------------|


   H.         E E   H        E E  E  E   W                 H.           E  E
|-----------------|--------------------|-----------------|-------------------|
|-12---------10-9-|--------------------|-----------------|--------------9-10-|
|-----------------|---------11-9-11-11-|-9---------------|-------------------|
|-----------------|--------------------|-----------------|-------------------|
|-----------------|--------------------|-----------------|-------------------|
|-----------------|--------------------|-----------------|-------------------|


   H.         E E   +H        Q  E  E    H.        E  E   H.          E  E
|-----------------|-------------------|------------9----|------------------|
|-12---------10-9-|-(9)----------9-10-|-12-----------10-|-------------9-10-|
|-----------------|-------------------|-----------------|------------------|
|-----------------|-------------------|-----------------|------------------|
|-----------------|-------------------|-----------------|------------------|
|-----------------|-------------------|-----------------|------------------|


   H.        Q     Q  Q   Q   Q     W                  q    q    q  Q
|------------9--|-10--9--10--10--|-12---------------|-12---12---12-----*|
|-12------------|----------------|------------------|------------------*|
|---------------|----------------|------------------|------------------*|
|---------------|----------------|------------------|------------------*|
|---------------|----------------|------------------|------------------*|
|---------------|----------------|------------------|------------------*|




Guitar 2

     W                    +W                   W                +W
||---5-----------------|--(5)---------------|-10-------------|-(10)----|
||o--5-----------------|--(5)---------------|-10-------------|-(10)----|
||---6-----------------|--(6)---------------|-11-------------|-(11)----|
||---7-----------------|--(7)---------------|-12-------------|-(12)----|
||o--------------------|--------------------|----------------|---------|
||---------------------|--------------------|----------------|---------|


   W                    +W                  W                +W
|--7-----------------|--(7)--------------|-12-------------|-(12)----|
|--7-----------------|--(7)--------------|-12-------------|-(12)----|
|--7-----------------|--(7)--------------|-13-------------|-(13)----|
|--9-----------------|--(9)--------------|-14-------------|-(14)----|
|--------------------|-------------------|----------------|---------|
|--------------------|-------------------|----------------|---------|


   W                    +W                  W                 +W
|--5-----------------|--(5)--------------|-10--------------|-(10)-----------|
|--5-----------------|--(5)--------------|-10--------------|-(10)-----------|
|--6-----------------|--(6)--------------|-11--------------|-(11)-----------|
|--7-----------------|--(7)--------------|-12--------------|-(12)-----------|
|--------------------|-------------------|-----------------|----------------|
|--------------------|-------------------|-----------------|----------------|

                                                1.              2.
   W               +W                 W           +W              +W
|-12------------|-(12)-------------|--9--------|--(9)---------||--(9)-----------|
|-12------------|-(12)-------------|-10--------|-(10)--------o||-(10)-----------|
|-13------------|-(13)-------------|--9--------|--(9)---------||--(9)-----------|
|-14------------|-(14)-------------|-11--------|-(11)---------||-(11)-----------|
|---------------|------------------|-12--------|-(12)--------o||-(12)-----------|
|---------------|------------------|-----------|--------------||----------------|




Guitar 3 - 0:59

   Q   q  q   q      E  E E E q  Q       Q   q  q  q      E  E E E q  Q
|-----------------|-----------5-------|-----------------|------------------|
|------5--5---5---|--5--5-5-5---------|------5--5--5----|-5--5-5-----------|
|-----------------|-------------------|-----------------|--------7-6-------|
|-----------------|-------------------|-----------------|------------------|
|-----------------|-------------------|-----------------|------------------|
|-----------------|-------------------|-----------------|------------------|


   Q   q  q   q     E E E E  q    Q      E E E E E E E E   E  E E E E E E  E
|-----------------|----------5---------|-----------------|-------------------|
|------5--5---5---|-5-5-5-5------------|-5-------5-------|-5--------5--------|
|-----------------|--------------------|---7-6-7---7-6-7-|----7-6-7---7-6--7-|
|-----------------|--------------------|-----------------|-------------------|
|-----------------|--------------------|-----------------|-------------------|
|-----------------|--------------------|-----------------|-------------------|


   Q   q  q   q      E  E E E q  Q       Q   q  q  q      E  E E E q  Q
|-----------------|-----------5-------|-----------------|------------------|
|------5--5---5---|--5--5-5-5---------|------5--5--5----|-5--5-5-----------|
|-----------------|-------------------|-----------------|--------7-6-------|
|-----------------|-------------------|-----------------|------------------|
|-----------------|-------------------|-----------------|------------------|
|-----------------|-------------------|-----------------|------------------|


   Q   q  q  q     q  q   q   q     E E E E E E E E    E E  E E  q  Q
|------------4--|--5--5---7---7--|------------------|------------------*|
|------5--5-----|----------------|--5-------5-------|--5---------5-----*|
|---------------|----------------|----7-6-7---7-6-7-|----7--6-7--------*|
|---------------|----------------|------------------|------------------*|
|---------------|----------------|------------------|------------------*|
|---------------|----------------|------------------|------------------*|




Bass

    q  E E q  Q    q  E E q  Q    q  E E q  Q    q  E E q  Q
||---------------|--------------|--------------|--------------|
||o--------------|--------------|--------------|--------------|
||o--------------|-----------4--|-5----5-5--4--|-5----5-5--4--|
||--5----5-5--4--|-5----5-5-----|--------------|--------------|


  q  E E q  Q    q  E E q  Q    q  E E q  Q    q  E E q  Q
|--------------|--------------|--------------|--------------|
|--------------|--------------|-2----2-2-----|-2----2-2-----|
|-2----2-2-----|-2----2-2-----|-----------2--|-----------2--|
|--------------|--------------|--------------|--------------|


  q  E E q  Q    q  E E q  Q    E Q  Q  E E E   +H     Q  Q
|--------------|--------------|---------------|--------------|
|--------------|--------------|---------------|--------------|
|--------------|-----------4--|-4s5--5----7-5-|-(5)----------|
|-5----5-5--4--|-5----5-5-----|---------5-----|--------4--5--|


  q  E E q  Q    q  Q  E E E E   q  E E q  Q    q  H.
|--------------|---------------|--------------|-----------||
|--------------|---------------|--------------|----------o||
|--------------|-7-------------|--------------|----------o||
|-7----7-7-----|-------0-0-4-4-|-5----5-5--4--|-5---------||


  q  E E q  Q    q  E E Q  Q    q  E E q  Q    q  E E q  Q
|--------------|--------------|--------------|--------------|
|--------------|--------------|--------6-----|-7----7-7-----|
|-7----7-5-----|-4----4-------|-7----7-------|--------------|
|--------------|--------5-----|--------------|--------------|


  q  E E q  Q    q  E E Q  Q    Q.   E Q  Q    Q.   E Q  Q
|--------------|--------------|--------------|--------------|
|--------------|--------------|--------------|--------7-----|
|-7----7-5-----|-4----4-5--4--|-----------7--|--------------|
|--------------|--------------|-5----5-5-----|-5----5----5--|


  q  E E q  Q    q  E E Q  Q    q  E E q  Q    q  E E q  Q
|--------------|--------------|--------------|--------------|
|--------------|--------------|--------6-----|-7----7-7-----|
|-7----7-5-----|-4----4-------|-7----7-------|--------------|
|--------------|--------5-----|--------------|--------------|


  q  E E q  Q    q  E E q  Q    E E E E E E E E   q  q  q  Q
|--------------|--------4--4--|---------9-------|----9--9-----*|
|-----------6--|-7----7-------|-----------------|-------------*|
|-7----7-7-----|--------------|-7-7-7-7---7-7-7-|-7-----------*|
|--------------|--------------|-----------------|-------------*|

s - slide

W - whole
H - half
Q - quarter
E - 8th
+ - note tied to previous
. - note dotted

Uncapitalized letters represent notes that are staccato (1/2 duration)

        
Comments

No comments yet