Gametabs
Home
Tabs
Random

Poochy's Theme

Average rating: 5.000

3 ratings

Composer:

Tabber:

Style:

Created: February 07, 2009 at 12:00 AM

            Tetris Attack - Poochy's Theme (guitar tab)
Composer:  Masaya Kuzume

Tabbed 2009-02-07 by vega12


 e |--------0------|--------0------|--------0------|--------0------|
 B |----1-----1---1|----1-----1---1|----1-----1---1|----1-----1---1|
 G |--0---0-----0--|--0---0-----0--|--0---0-----0--|--0---0-----0--|
 D |3--------------|3--------------|2--------------|2--------------|
 A |---------------|---------------|---------------|---------------|
 E |---------------|---------------|---------------|---------------|


 e |--------0------|------0-----1--|--------0------|------3--------|
 B |----1-----1---1|----1-1-----1--|----1-----1---1|----1-----1----|
 G |--0---0-----0--|--0---2-----2--|--0---0-----0--|--0---------0--|
 D |3--------------|3--------------|2--------------|2-------------2|
 A |---------------|---------------|---------------|---------------|
 E |---------------|---------------|---------------|---------------|


 e |--------0------|--------0------|--------0------|--------0------|
 B |----1-----1---1|----1-----1---1|----1-----1---1|----1-----1---1|
 G |--2---2-----2--|--2---2-----2--|--0---0-----0--|--0---0-----0--|
 D |3--------------|3--------------|2--------------|2--------------|
 A |---------------|---------------|---------------|---------------|
 E |---------------|---------------|---------------|---------------|


 e |--------0------|--------0------|--------0------|--------0------|
 B |----1-----1---1|----1-----1---1|----1-----1---1|----1-----1---1|
 G |--2---2-----2--|--2---2-----2--|--0---0-----0--|--0---0-----0--|
 D |3--------------|3--------------|2--------------|2--------------|
 A |---------------|---------------|---------------|---------------|
 E |---------------|---------------|---------------|---------------|


 e |------0--------|------0-----1--|--------0------|------0-------0|
 B |----1-1--------|----1-1-----1--|----1-----1---1|----1-------3--|
 G |--2---2--------|--2---2-----2--|--0---0-----0--|--0-------5----|
 D |3--------------|3--------------|2--------------|2--------------|
 A |---------------|---------------|---------------|---------------|
 E |---------------|---------------|---------------|---------------|


 e |0-------0-----0|----0-1-0------|--------0------|----0-1-3-1-0--|
 B |----1-------3--|----------1---3|----1-----1---1|--------------1|
 G |--2---2---5----|--2---------2--|--0---0-----0--|--0------------|
 D |---------------|3--------------|2--------------|2--------------|
 A |---------------|---------------|---------------|---------------|
 E |---------------|---------------|---------------|---------------|


 e |------1--------|------0--------|------0--------|------0--------|
 B |--1---1--------|--0---0--------|--1-------1---1|--1---------1--|
 G |2---2-2--------|0---0-0--------|2---2-------2--|2---2-----2---2|
 D |---------------|---------------|---------------|---------------|
 A |---------------|---------------|---------------|---------------|
 E |---------------|---------------|---------------|---------------|


 e |------1--------|------0--------|--0-0---0-0---0|--0---0---0-0--|
 B |--1---1--------|--0---0--------|--3-3---2-2---3|--3---3---2-2--|
 G |2---2-2--------|0---0-0--------|---------------|---------------|
 D |---------------|---------------|---------------|---------------|
 A |---------------|---------------|---------------|---------------|
 E |---------------|---------------|---------------|---------------|


 e |--0-0---0-0---0|---------------|--0-0---0-0---0|--0---0---0-0--|
 B |--3-3---2-2---3|---------------|--3-3---2-2---3|--3---3---2-2--|
 G |---------------|---------------|---------------|---------------|
 D |---------------|---------------|---------------|---------------|
 A |---------------|---------------|---------------|---------------|
 E |---------------|---------------|---------------|---------------|


 e |--0-0---0-0---0|---------------|
 B |--3-3---2-2---3|---------------|
 G |---------------|---------------|
 D |---------------|---------------|
 A |---------------|---------------|
 E |---------------|---------------|


        
Comments

@auriplane (December 19, 2011 at 12:13 AM)

I like this tab ^-^