Gametabs
Home
Tabs
Random

Poochy's Theme

Average rating: 5.000

1 ratings

Composer:

Tabber:

Style:

Instrument:

Created: February 07, 2009 at 12:00 AM

                                  Panel de Pon - Thiana's Stage BASS TAB
                      A.K.A. Tetris Attack - Poochy's Theme 
                               Song by Masaya Kuzume

                      Tabbed by auriplane ([email protected])

The slides in this song mostly sound good on a fretted bass, but I'd skip 
the first slide up to 10 unless you're on a fretless.  It just sounds funny 
to me that way.

I made this tab to go along with vega12's excellent guitar tab for this song,
so make sure to check that one out :-) 

    Rest for eight measures at the beginning.

G |--|----------------|----------------|----------------|----------------|
D |--|----------------|--------7---7-9-/10----97--------|----------------|
A |7-|8---------------|--7-8-10--10----|--------10------|-----------\7---|
E |--|----------------|----------------|----------------|----------------|
                                                        
   G |----------------|----------------|------/12-------|----------------|
   D |----------------|--------7---7-9-|10----------9---|10--------------|
   A |8---------------|--7-8-10--10----|----------------|------10---\7---|
   E |----------------|----------------|----------------|----------------|
                                                        
   G |----------------|------------7---|9---------------/12----------9---|
   D |-----/10--------|-----/10--------|------10----9-10|------10--------|
   A |8---------------|8---------------|----------------|----------------|
   E |----------------|----------------|----------------|----------------|
                                                        
   G |10--------------|--------------7-|----------------|----------------|
   D |--10--7---------|------7-----9---|10---------\7---|----------------|
   A |----------10--7-|8---------------|----------------|10--------------|
   E |----------------|----------------|----------------|----------------|

   G |----------------|----------------|----------------|----------------|
   D |----------------|----------------|----------------|----------------|
   A |----------------|7-------------7-|8---------------|L-108-7-8-7---7-|
   E |10----------8-10|------------10--|----------------|------------10--|

   G |----------------|----------------|----------------|----------------|
   D |----------------|----------------|7---------------|L---------------|
   A |----------------|7-------------7-|----------------|--------------7-|
   E |10----------8-10|------------10--|----------------|----------------|

   G |----------------|----------------|----------------|----------------|
   D |7---------------|L---------------|--7-7---7-7---7-|--7---7---7-----|
   A |----------------|--------------7-|L---------------|--------------7-|
   E |----------------|----------------|----------------|------------10--|

   G |----------------|----------------|
   D |--7-7---7-7---7-|----------7-----|
   A |L---------------|------------107-|
   E |----------------|----------------|

        
Comments

No comments yet