Gametabs
Home
Tabs
Random

Underworld

Average rating: 5.000

1 ratings

Composer:

Tabber:

Style:

Instrument:

Created: March 06, 2009 at 12:00 AM

                                           Terranigma - Underworld                                    
                                Tabbed By Calebelijah

Lead
             Q    Q    Q    E  E       Q.     Q.     Q     
E||-------|-----------------5--7--||---4------------------|
B||-------|-----------------------||----------7-----------|
G||-------|-----------------------||*----------------6----|
D||-------|-----------------------||*---------------------|
A||-------|-----------------------||----------------------|
E||-------|-----------------------||----------------------|
 
 
  H        E.  S E  E     Q.     Q.     Q        W                 
-----------------5--7--|--4-------------------|-------------------|
--7--------L-----------|---------7------5s----|--2----------------|
-----------------------|----------------------|-------------------|
-----------------------|----------------------|-------------------|
-----------------------|----------------------|-------------------|
-----------------------|----------------------|-------------------|
 
 
                            |----3----|    |----3----|                         
  E  E  E  E.  S E.  E.     Q    Q    Q    Q    Q    Q       W                 
-----------------0-------|--0----2----0---------0---------|-------------------|
--2--0--2--3---------3---|-----------------3---------3----|--2----------------|
-------------------------|--------------------------------|-------------------|
-------------------------|--------------------------------|-------------------|
-------------------------|--------------------------------|-------------------|
-------------------------|--------------------------------|-------------------|
 
 
  W                   Q.     Q.     E.  S    W                 
-------------------|--------------------9-|--9----------------|
--L----------------|--9------7------------|-------------------|
-------------------|----------------6-----|-------------------|
-------------------|----------------------|-------------------|
-------------------|----------------------|-------------------|
-------------------|----------------------|-------------------|
 
 
  Q.     Q.     Q       Q.     Q    E.   E.     W                 
---------------------|-----------------------|--7----------------|
--9------7-----------|---------7----9---10---|-------------------|
----------------6----|--9--------------------|-------------------|
---------------------|-----------------------|-------------------|
---------------------|-----------------------|-------------------|
---------------------|-----------------------|-------------------|
 
 
   H.           S  E  S     S  S  E  H.              H.            Q     
--12--------------------|-------------------------|---------------------|
------------------15----|--14-15-14--L------------|--L------------14----|
------------------------|-------------------------|---------------------|
------------------------|-------------------------|---------------------|
------------------------|-------------------------|---------------------|
------------------------|-------------------------|---------------------|
 
 
                              |-----3-----|     |-----3-----|     
   Q.      Q     Q     E      Q     Q     Q     Q     Q     Q     
--16------14----16----17--|--19----17----16----------------------|
--------------------------|--------------------17----------------|
--------------------------|--------------------------18----16----|
--------------------------|--------------------------------------|
--------------------------|--------------------------------------|
--------------------------|--------------------------------------|
 
 
   W                   H.            Q        Q.      Q     Q     E   
--------------------|---------------------|--16------------16----17--|
--------------------|---------------------|----------19--------------|
--18----------------|--L------------18----|--------------------------|
--------------------|---------------------|--------------------------|
--------------------|---------------------|--------------------------|
--------------------|---------------------|--------------------------|
 
 
   |-----3-----|     |-----3-----|                          
   Q     Q     Q     Q     Q     Q        W                 
--19----17----16----------------------|--------------------|
--------------------17----------17----|--19----------------|
--------------------------18----------|--------------------|
--------------------------------------|--------------------|
--------------------------------------|--------------------|
--------------------------------------|--------------------|
 
 
  H.            Q        Q.      Q     Q     E   
---------------------|--16------------16----17--|
--L------------------|----------19--------------|
---------------18----|--------------------------|
---------------------|--------------------------|
---------------------|--------------------------|
---------------------|--------------------------|
 
 
   |-----3-----|     |-----3-----|                          
   Q     Q     Q     Q     Q     Q        W                 
--19----17----16----------21----19----|--21----------------|
--------------------17----------------|--------------------|
--------------------------------------|--------------------|
--------------------------------------|--------------------|
--------------------------------------|--------------------|
--------------------------------------|--------------------|
 
 
  H.            Q        Q.      Q     Q     E   
--L------------------|--16------------16----17--|
---------------------|----------19--------------|
---------------18----|--------------------------|
---------------------|--------------------------|
---------------------|--------------------------|
---------------------|--------------------------|
 
 
   |-----3-----|     |-----3-----|                          
   Q     Q     Q     Q     Q     Q        W                 
--19----17----16----------------16----|--16----------------|
--------------------17----------------|--------------------|
--------------------------18----------|--------------------|
--------------------------------------|--------------------|
--------------------------------------|--------------------|
--------------------------------------|--------------------|
 
 
   W                    
--14------------------||
----------------------||
--------------------*-||
--------------------*-||
----------------------||
----------------------||
 
 
 
 
Duration Legend
---------------
W - whole
H - half
Q - quarter
E - 8th
S - 16th
T - 32nd
X - 64th
. - note dotted
|-n-|  - n-tuplets
 
 
Tablature Legend
----------------
L - tied note


                               Terranigma - Underworld                                    
                                Tabbed By Calebelijah

Harmony
     W                   W                     W                 
E||-------------------|-------------------||--------------------|
B||-------------------|-------------------||--------------------|
G||-------------------|-------------------||*--2----------------|
D||-------------------|-------------------||*--4----------------|
A||-------------------|-------------------||--------------------|
E||--2----------------|--L----------------||--------------------|
 
 
  Q    E  S S H           W                   Q    E  S S H         
-----------------------|-------------------|-----------------------|
-----------------------|-------------------|-----------------------|
--2----L----1-2--------|--2----------------|--2----L----1-2--------|
--4----L--4---4--------|--0----------------|--0----L--4---0--------|
-----------------------|-------------------|-----------------------|
-----------------------|-------------------|-----------------------|
 
 
  W                   W                   H.           E  S S  
-------------------|-------------------|----------------------|
-------------------|-------------------|----------------------|
--2----------------|--4----------------|--2------------L----1-|
--5----------------|--5----------------|--4------------L--4---|
-------------------|-------------------|----------------------|
-------------------|-------------------|----------------------|
 
 
  W                   E  E  E  E  E  E  E  E     E  E  E  E  E  E  E  E   
-------------------|--9--9--9--9--9--9--9--9--|--9--9--9--9--9--9--9--9--|
-------------------|--5--5--5--5--5--5--5--5--|--5--5--5--5--5--5--5--5--|
--2----------------|--------------------------|--------------------------|
--4----------------|--------------------------|--------------------------|
-------------------|--------------------------|--------------------------|
-------------------|--------------------------|--------------------------|
 
 
  E  E  E  E  E  E  E  E     E  E  E  E  E  E  E  E   
--9--9--9--9--9--9--9--9--|--9--9--9--9--9--9--9--9--|
--5--5--5--5--5--5--5--5--|--5--5--5--5--5--5--5--5--|
--------------------------|--------------------------|
--------------------------|--------------------------|
--------------------------|--------------------------|
--------------------------|--------------------------|
 
 
  E  E  E  E  E  E  E  E     E  E  E  E  E  E  E  E     E  Q    E  E  Q    E   
--7--7--7--7--7--7--7--7--|--7--7--7--7--7--7--7--7--|-----5----L-----7----L--|
--3--3--3--3--3--3--3--3--|--8--8--8--8--8--8--8--8--|-----2----2--4--4----4--|
--------------------------|--------------------------|------------------------|
--------------------------|--------------------------|------------------------|
--------------------------|--------------------------|------------------------|
--------------------------|--------------------------|------------------------|
 
 
  E  Q    E  Q    Q        H        Q    Q       H        H         
-----9----L--7----9----|--10--------9----7----|--5--------4--------|
--5--5----5--5----5----|---7--------L----L----|--3--------3--------|
-----------------------|----------------------|--------------------|
-----------------------|----------------------|--------------------|
-----------------------|----------------------|--------------------|
-----------------------|----------------------|--------------------|
 
 
  H        H           Q.     Q.     Q        H        Q    Q     
--5--------7--------|--9------7------9----|--10--------9----7----|
--2--------4--------|--5------4------5----|---7--------L----L----|
--------------------|---------------------|----------------------|
--------------------|---------------------|----------------------|
--------------------|---------------------|----------------------|
--------------------|---------------------|----------------------|
 
 
  H        H           W                   H.           Q     
--5--------4--------|--7----------------|--6------------9----|
--3--------3--------|-------------------|--------------------|
--------------------|--6----------------|--6------------L----|
--------------------|-------------------|--------------------|
--------------------|-------------------|--------------------|
--------------------|-------------------|--------------------|
 
 
   H        Q    Q       H        H           H        H         
--10--------9----7----|--5--------4--------|--5--------7--------|
---7--------L----L----|--3--------3--------|--2--------4--------|
----------------------|--------------------|--------------------|
----------------------|--------------------|--------------------|
----------------------|--------------------|--------------------|
----------------------|--------------------|--------------------|
 
 
  Q.     Q.     Q        H        Q    Q       H        H         
--9------7------9----|--10--------9----7----|--5--------4--------|
--5------4------5----|---7--------L----L----|--3--------3--------|
---------------------|----------------------|--------------------|
---------------------|----------------------|--------------------|
---------------------|----------------------|--------------------|
---------------------|----------------------|--------------------|
 
 
  W                   H.           Q        
--7----------------|--6------------9------||
-------------------|----------------------||
--6----------------|--6------------L----*-||
-------------------|--------------------*-||
-------------------|----------------------||
-------------------|----------------------||
 
 
 
 
Duration Legend
---------------
W - whole
H - half
Q - quarter
E - 8th
S - 16th
T - 32nd
X - 64th
. - note dotted
|-n-|  - n-tuplets
 
 
Tablature Legend
----------------
L - tied note


                               Terranigma - Underworld                                    
                                Tabbed By Calebelijah

Arpeggios
      |---3---|   |----3---|   |---3---|    |---3---|   
      E   E   E   E    E   E   E   E   E    E   E   E   
E||---------------------------14-----------------------|
B||-----------------------14------14-------------------|
G||--------------11h--14--------------14p--11----------|
D||----------11--------------------------------11------|
A||------12----------------------------------------12--|
E||--14------------------------------------------------|
 
 
   |---3---|   |----3---|   |---3---|    |---3---|   
   E   E   E   E    E   E   E   E   E    E   E   E   
---------------------------14-----------------------|
-----------------------14------14-------------------|
--------------11h--14--------------14p--11----------|
----------11--------------------------------11------|
------12----------------------------------------12--|
--14------------------------------------------------|
 
 
     |---3---|   |----3---|   |---3---|    |---3---|   
     E   E   E   E    E   E   E   E   E    E   E   E   
|----------------------------14-----------------------|
|------------------------14------14-------------------|
|*--------------11h--14--------------14p--11----------|
|*----------11--------------------------------11------|
|-------12----------------------------------------12--|
|---14------------------------------------------------|
 
 
   |---3---|   |----3---|   |---3---|    |---3---|   
   E   E   E   E    E   E   E   E   E    E   E   E   
---------------------------14-----------------------|
-----------------------14------14-------------------|
--------------11h--14--------------14p--11----------|
----------11--------------------------------11------|
------12----------------------------------------12--|
--14------------------------------------------------|
 
 
   |---3---|   |----3---|   |---3---|    |---3---|   
   E   E   E   E    E   E   E   E   E    E   E   E   
---------------------------14-----------------------|
-----------------------14------14-------------------|
--------------11h--14--------------14p--11----------|
----------11--------------------------------11------|
------12----------------------------------------12--|
--14------------------------------------------------|
 
 
   |---3---|   |----3---|   |---3---|    |---3---|   
   E   E   E   E    E   E   E   E   E    E   E   E   
---------------------------14-----------------------|
-----------------------14------14-------------------|
--------------11h--14--------------14p--11----------|
----------11--------------------------------11------|
------12----------------------------------------12--|
--14------------------------------------------------|
 
 
   |---3---|   |----3---|   |---3---|    |---3---|   
   E   E   E   E    E   E   E   E   E    E   E   E   
---------------------------14-----------------------|
-----------------------14------14-------------------|
--------------11h--14--------------14p--11----------|
----------11--------------------------------11------|
------12----------------------------------------12--|
--14------------------------------------------------|
 
 
   |---3---|   |----3---|   |---3---|    |---3---|   
   E   E   E   E    E   E   E   E   E    E   E   E   
---------------------------14-----------------------|
-----------------------14------14-------------------|
--------------11h--14--------------14p--11----------|
----------11--------------------------------11------|
------12----------------------------------------12--|
--14------------------------------------------------|
 
 
   |---3---|   |----3---|   |---3---|    |---3---|   
   E   E   E   E    E   E   E   E   E    E   E   E   
---------------------------14-----------------------|
-----------------------14------14-------------------|
--------------11h--14--------------14p--11----------|
----------11--------------------------------11------|
------12----------------------------------------12--|
--14------------------------------------------------|
 
 
   |---3---|   |----3---|   |---3---|    |---3---|   
   E   E   E   E    E   E   E   E   E    E   E   E   
---------------------------14-----------------------|
-----------------------14------14-------------------|
--------------11h--14--------------14p--11----------|
----------11--------------------------------11------|
------12----------------------------------------12--|
--14------------------------------------------------|
 
 
   |---3---|   |----3---|   |---3---|    |---3---|   
   E   E   E   E    E   E   E   E   E    E   E   E   
---------------------------14-----------------------|
-----------------------14------14-------------------|
--------------11h--14--------------14p--11----------|
----------11--------------------------------11------|
------12----------------------------------------12--|
--14------------------------------------------------|
 
 
   |---3---|   |----3---|   |---3---|    |---3---|   
   E   E   E   E    E   E   E   E   E    E   E   E   
---------------------------14-----------------------|
-----------------------14------14-------------------|
--------------11h--14--------------14p--11----------|
----------11--------------------------------11------|
------12----------------------------------------12--|
--14------------------------------------------------|
 
 
   |---3---|   |----3---|   |---3---|    |---3---|   
   E   E   E   E    E   E   E   E   E    E   E   E   
---------------------------14-----------------------|
-----------------------14------14-------------------|
--------------11h--14--------------14p--11----------|
----------11--------------------------------11------|
------12----------------------------------------12--|
--14------------------------------------------------|
 
 
   |---3---|   |----3---|   |---3---|    |---3---|   
   E   E   E   E    E   E   E   E   E    E   E   E   
---------------------------14-----------------------|
-----------------------14------14-------------------|
--------------11h--14--------------14p--11----------|
----------11--------------------------------11------|
------12----------------------------------------12--|
--14------------------------------------------------|
 
 
   |---3---|   |---3---|   |---3---|   |---3---|   
   E   E   E   E   E   E   E   E   E   E   E   E   
--------------------------15----------------------|
------------------12--15------15--12--------------|
--------------12----------------------12----------|
----------12------------------------------12------|
------14--------------------------------------14--|
--15----------------------------------------------|
 
 
   |---3---|   |---3---|   |---3---|   |---3---|   
   E   E   E   E   E   E   E   E   E   E   E   E   
--------------------------15----------------------|
------------------12--15------15--12--------------|
--------------12----------------------12----------|
----------12------------------------------12------|
------14--------------------------------------14--|
--15----------------------------------------------|
 
 
   |---3---|   |----3---|   |---3---|    |---3---|     ---   ---   ---   --- 
   E   E   E   E    E   E   E   E   E    E   E   E                           
---------------------------14-----------------------|-----|-----|-----|-----|
-----------------------14------14-------------------|-----|-----|-----|-----|
--------------11h--14--------------14p--11----------|-----|-----|-----|-----|
----------11--------------------------------11------|-----|-----|-----|-----|
------12----------------------------------------12--|-----|-----|-----|-----|
--14------------------------------------------------|-----|-----|-----|-----|
 
 
   S  S   S  S  S   S  S  S  S  S  S   S  S   S  S  S            
------------------------------------------------------|----|----|
------------------------------------------------------|----|----|
-------------------------11-------11h-14-13p-11-------|----|----|
------------11--------11-------11---------------11----|----|----|
-----11h-12----11h-12-------12---------------------12-|----|----|
--14--------------------------------------------------|----|----|
 
 
  H         S  S   S  S  S   S  S   S  
--------------------------------------|
-------------------------------11h-14-|
------------------------11h-13--------|
---------------------11---------------|
--------------11h-13------------------|
-----------14-------------------------|
 
 
   S  S   S  S  S   S  S   S  S  S   S  S  S  S  S  S                 
--14--------------------------------------------------|----|----|----|
-----14p-11----14p-11--------11-----------------------|----|----|----|
------------13--------13p-11----13p-11----11----------|----|----|----|
---------------------------------------11----11-------|----|----|----|
------------------------------------------------13----|----|----|----|
---------------------------------------------------14-|----|----|----|
 
 
   S  S   S  S  S   S  S  S  S  S  S  S   S   S  S  S            
------------------------------------------------------|----|----|
------------------------------------------------------|----|----|
-------------------------11-------11-14p-13p-11-------|----|----|
------------11--------11-------11---------------11----|----|----|
-----11h-12----11h-12-------12---------------------12-|----|----|
--14--------------------------------------------------|----|----|
 
 
  H         S  S   S  S  S   S  S   S  
--------------------------------------|
-------------------------------11h-14-|
------------------------11h-13--------|
---------------------11---------------|
--------------11h-13------------------|
-----------14-------------------------|
 
 
   S  S   S  S  S   S  S   S  S  S   S  S  S  S  S  S     
--14----------------------------------------------------||
-----14p-11----14p-11--------11-------------------------||
------------13--------13p-11----13p-11----11----------*-||
---------------------------------------11----11-------*-||
------------------------------------------------13------||
---------------------------------------------------14---||
 
 
 
 
Duration Legend
---------------
W - whole
H - half
Q - quarter
E - 8th
S - 16th
T - 32nd
X - 64th
. - note dotted
|-n-|  - n-tuplets
 
 
Tablature Legend
----------------
L - tied note


        
Comments

@SyyLux (July 22, 2010 at 4:01 PM)

The LEad PArt was the first thing i learned on my E-Guitar .. It is just awesome... Love the game and this theme