Gametabs
Home
Tabs
Random

Light Side Field

Average rating: 5.000

3 ratings

Composer:

Tabber:

Style:

Instrument:

Created: October 08, 2009 at 12:00 AM

                                           Light Side Field                                 

Light Side Field
Terranigma
Composed by: Miyoko Kobayashi, Masanori Hikichi
Arranged by: Ivo Koporcic
October 8, 2009


CAPO on 2nd Fret





      E  E  E  E  E  E  E  E     E  E  E  E  E  E  E  E   
F#||--------------------------|--------------------------|
C#||--1-----1--1--1-----1--1--|--3-----3--3--3-----3--3--|
A ||--------------------------|--------------------------|
E ||--2-----------2-----------|--4-----------4-----------|
B ||--0-----0-----0-----0-----|--0-----0-----0-----0-----|
F#||--------------------------|--------------------------|


  E  E  E  E  E  E  E  E     E  E  E  E  E  E  E  E   
--------------------------|--------------------------|
--5-----5--5--5-----5--5--|--3--------3--3-----------|
--------------------------|--------------------------|
--5-----------5-----------|--4-----------4-----------|
--0-----0-----0-----0-----|--0-----0-----0-----------|
--------------------------|--------------------0-----|


  E  E  E  E  E  E  E  E     E  E  E  E  E  E  E  E   
--------------0-----------|--------------------------|
--------1--3-----------1--|--3--------------------3--|
-----2--------------------|--------------2-----------|
--2-----------2-----------|--4-----------4-----------|
--0-----0-----0-----0-----|--0-----0-----0-----0-----|
--------------------------|--------------------------|


                                         |--3--|  |--3--|   
  E  E  E  E  E  E  E  E     E  E  E  E  E  E  E  E  E  E   
--------------------------|--------------------------------|
--1--0--------------------|--0-----------------------------|
--------2--------------2--|--0-----------0-----------------|
--3-----------3-----------|--------------------------------|
--0-----0-----0-----0-----|--0--0--0--2--3-----2-----------|
--------------------------|--------------------------3-----|


              |--3--|  |--3--|                              
  E  E  E  E  E  E  E  E  E  E     E  E  E  E  E  E  E  E   
--------------0-----------------|--------------------------|
--------0--1--------3-----1-----|--3--------------------3--|
-----2--------2-----------------|--------------2-----------|
--------------------------------|--------------0-----------|
--------------------------------|--------------------------|
--1-----1-----1--------1--------|--2-----2-----2-----2-----|


  E  E  E  E  E  E  E  E     E  E  E  E  E  E  E  E   
--------------------------|--------------------------|
--1--------------0--1--0--|--------------------------|
-----------------------1--|--------------------------|
--------------0-----------|-----------------2-----2--|
--------------------------|--------------------------|
--3-----3-----3-----3-----|--4-----4-----4-----4-----|


              |--3--|  |--3--|                 |--3--|  |--3--|   
  E  E  E  E  E  E  E  E  E  E     E  E  E  E  E  E  E  E  E  E   
--------------0-----------------|--------------------------------|
--------1--3--------3-----1-----|--3-----------------------3-----|
-----2--------------------------|--------------2-----------------|
--2-----------2-----------------|--4-----------4-----------------|
--0-----0-----0--------0--------|--0-----0-----0-----------2-----|
--------------------------------|--------------------0-----------|


                    |--3--|                              
  E  E  E  E  E  E  E  E  E     E  E  E  E  E  E  E  E   
-----------------------------|-----------3--------------|
--1-----------------1--------|--3--------0--------------|
--------2--------------------|--------------------------|
--3-----------3--------------|--2-----------------------|
--0-----0-----0-----0--2--3--|--0-----------------0-----|
-----------------------------|-----------3-----3-----3--|


              |--3--|  |--3--|                              
  E  E  E  E  E  E  E  E  E  E     E  E  E  E  E  E  E  E   
--------------0-----------------|-----------------------2--|
--------0--1--------3-----1-----|--3-----------------------|
-----2--------2-----------------|--------------2-----------|
--------------------------------|--------------0-----------|
--------------------------------|--------------------------|
--1-----1-----1--------1--------|--2-----2-----2-----2-----|


  E  E  E  E  E  E  E  E     E  E  E  E  E  E  E  E   
--3--------------------4--|--------------------------|
--0--------------------5--|--------------5-----------|
--------------------------|--------------4-----------|
--------------0-----------|--------------------------|
--------------------------|--------------------------|
--3-----3-----3-----3-----|--0-----0-----0-----4-----|


              |--3--|  |--3--|                              
  E  E  E  E  E  E  E  E  E  E     E  E  E  E  E  E  E  E   
--5-----------5-----3-----1-----|--3-----0-----------------|
--1-----------1-----------------|--0--------------1--------|
--------------------------------|--------------0-----------|
--------------------------------|--------------------------|
--------------------------------|-----------3--------3-----|
--1--------1-----------1--------|--0-----------------------|


              |--3--|  |--3--|                              
  E  E  E  E  E  E  E  E  E  E     E  E  E  E  E  E  E  E   
--1-----------1-----0-----------|--0-----3--------0--0-----|
--1-----------1-----------3-----|--------1--------------3--|
--------------------------------|--------------0-----------|
--0--------0-----------0--------|--------------------------|
--------------------------------|--3-----------------------|
--------------------------------|-----------3--------0-----|


              |--3--|  |--3--|     |--3--|  |--3--|               
  E  E  E  E  E  E  E  E  E  E     E  E  E  E  E  E  E  E  E  E   
--------------------------------|--------------------------------|
--1--------1--1-----0-----------|--------0-----1-----------0-----|
--2-----------2-----------2-----|--0-----------------0-----------|
--------------------------------|--------------------------------|
--------------------------------|--------------------------------|
--1-----1-----1--------1--------|--0--------0--------0-----0-----|


  E  E  E  E  E  E  E  E     E  E  E  E  E  E  E  S S  
--------------------------|--0------------------------|
--1--------------------3--|--------3-----1-----0--1-0-|
--------------2-----------|--0-----0------------------|
--0-----0-----0-----0-----|---------------------------|
--------------------------|---------------------------|
--------------------------|--------3------------------|


  E  E  E  E  E  E  E  E     E  E  E  E  E  E  E  E   
--------------------------|--------------------------|
--1--1-----1--1--1-----1--|--3--3-----3--3--3-----3--|
--------------------------|--------------------------|
--2-----------2-----------|--4-----------4-----------|
--0-----0-----0-----0-----|--0-----0-----0-----0-----|
--------------------------|--------------------------|


              |--3--|  |--3--|                              
  E  E  E  E  E  E  E  E  E  E     E  E  E  E  E  E  E  E   
--------------------------------|--------------------------|
--5--5-----5--5-----------5-----|--3--3-----3--3-----------|
--------------------------------|--------------------------|
--5-----------5-----------5-----|--4-----------4-----0-----|
--0-----0-----0-----------2-----|--0-----0-----0-----0-----|
--------------------0-----------|--------------------------|


       |3|  |-3|       |3|  |-3|          |3|  |-3|       |3|  |-3|     
    E  S E  E  S E  E  S E  E  S E     E  S E  E  S E  E  S E  E  S E   
|-------------------0------------3--|--2----------------------------0--|
|-----------1----3------------------|------------------3---------------|
|---2----------2--------------------|----------------------------------|
|--------2----------2----------2----|--0----------0---------0----------|
|---0--------------------0----------|-------0----------0----------0----|
|-----------------------------------|----------------------------------|


     |3|  |-3|    |----3----|          |3|  |-3|       |3|  |-3|     
  E  S E  E  S E  Q    Q    Q       E  S E  E  S E  E  S E  E  S E   
--5---------------3----1----3----|--0-------------------------------|
---------------------------------|----------------------------------|
------------------0--------------|-------------------------------2--|
--3----------3---------0---------|----------------------------------|
-------3--------------------2----|--3----------3----2----------2----|
---------------------------------|-------3--------------------------|


     |3|  |-3|       |3|  |-3|          |3|  |-3|       |3|  |-3|       
  E  S E  E  S E  E  S E  E  S E     E  S E  E  S E  E  S E  E  S E  
------------------0------------3--|--2--------------------------------|
--1------------3------------------|---------------3-------------------|
-------------2--------------------|------------------2----------------|
-------2----------2----------2----|--0----------0---------0-----------|
--0--------------------0----------|-------0----------0----------0-----|
----------------------------------|-----------------------------------|


  |----3----|       |3|  |-3|                                
  Q    Q    Q    E  S E  E  S E     E  E  E  E  E  E  E  E   
---------------------------------|--------------------------|
--1----0-------------------------|--------------------------|
------------2----0------------0--|--2-----------------------|
--3---------3---------0----------|--2--2-----2--2--2-----2--|
-------3--------------------2----|--0-----------0-----------|
---------------------------------|--------------------------|


  E  E  E  E  E  E  E  E     E  E  E  E  E  E  E  E     E  E  E  E  E  E  Q     
--------------------------|--------------------------|-------------------------|
--------------------------|--------------------------|-------------------------|
--------------------------|--------------------------|-------------------------|
--4--4-----4--4--4-----4--|--5--5-----5--5--5-----5--|--4--4-----4--4--4-------|
--0-----------0-----------|--0-----------0-----------|--0-----------0----------|
--------------------------|--------------------------|--------------------0----|


  ^                                      
  W                                      
--0----------------|-------------------||
-------------------|-------------------||
-------------------|-------------------||
--2----------------|-------------------||
--0----------------|-------------------||
-------------------|-------------------||




        
Comments

No comments yet