Gametabs
Home
Tabs
Random

Title Screen

Average rating: No ratings

Composer:

Tabber:

Style:

Instrument:

Created: January 15, 2010 at 12:00 AM

             Teenage Mutant Ninja Turtles - Title Screen (NES) 
 Tabbed by LTRobson 16/06/07 updated 04/02/10

 Standard tuning
 
 Intro only
 (This part is very difficult to play at decent speed)

 Tapping version: (T = Tap  H = Hammer)

  T  H   H  T  H T     H T   T  H   H  T  H T     H T
 -12-7p0-10-12-5-7p3h5-------12-7p0-10-12-5-7p3h5-------
 ----------------------5-8p3----------------------5-8p3-
 -------------------------------------------------------
 -------------------------------------------------------
 -------------------------------------------------------
 -------------------------------------------------------

  T  H   H  T  H T     H T   T  H   H  T  H T     H T
 -12-7p0-10-12-5-7p3h5-------12-7p0-10-12-5-7p3h5-------
 ----------------------5-8p3----------------------5-8p3-
 -------------------------------------------------------
 -------------------------------------------------------
 -------------------------------------------------------
 -------------------------------------------------------

 Picking version:

 -12-7-0-10-12-5-7-3-5-0-3---12-7-0-10-12-5-7-3-5-0-3---
 --------------------------3--------------------------3-
 -------------------------------------------------------
 -------------------------------------------------------
 -------------------------------------------------------
 -------------------------------------------------------

 -12-7-0-10-12-5-7-3-5-0-3---12-7-0-10-12-5-7-3-5-0-3---
 --------------------------3--------------------------3-
 -------------------------------------------------------
 -------------------------------------------------------
 -------------------------------------------------------
 -------------------------------------------------------

 Theme

 ---------------------------------------------------------
 ---------------------------------------------------------
 ----------------------------2-2-2-2-2-0-2-5--5---7--7--\-
 -2-2-2-2-2-0-2-5--\---------2-2-2-2-2-0-2-5--5---7--7--\-
 -2-2-2-2-2-0-2-5--\--------------------------------------
 ---------------------------------------------------------

 ------------------------------------------------------
 ------------------------------------------------------
 ----------------------------2-2-2-2-2-0-2-5-\--7-\--8-
 -2-2-2-2-2-0-2-5--\---------2-2-2-2-2-0-2-5-\--7-\--8-
 -2-2-2-2-2-0-2-5--\-----------------------------------
 ------------------------------------------------------

 --------------------------12--\--12--\-
 ---------------------9-12-12--\--12--\-
 -9--\--9--\--------9-------------------
 -9--\--9--\------9---------------------
 --------------11-----------------------
 ---------------------------------------

 -------------------------------15--\--15--\-
 -------------------------12-15-15--\--15--\-
 -12--\--12--\---------12--------------------
 -12--\--12--\------12-----------------------
 ----------------14--------------------------
 --------------------------------------------

 ----------------------------------------------------------------------
 -10--\--10--\------13--\--13--\------12--\--12------------------------
 -9---\--9---\------12--\--12--\------11--\--11--------------------7-8-
 ------------------------------------------------------9-9-9-9-7-9-7-8-
 ------------------------------------------------------9-9-9-9-7-9-----
 ----------------------------------------------------------------------

 --------------------------12--\--12--\-
 ---------------------9-12-12--\--12--\-
 -9--\--9--\--------9-------------------
 -9--\--9--\------9---------------------
 --------------11-----------------------
 ---------------------------------------

 -------------------------------15--\--15--\-
 -------------------------12-15-15--\--15--\-
 -12--\--12--\---------12--------------------
 -12--\--12--\------12-----------------------
 ----------------13--------------------------
 --------------------------------------------

 -----------------------------------------------------------
 -10-\--10-\----13-\-12-\-----------------------------------
 -9--\--9--\----12-\-11-\-------------------------------0-2-
 ----------------------------2-2-2-2-0-0-2-2-5-4-3-2--2-0-2-
 ----------------------------2-2-2-2-0-0-2-2-5-4-3-2--2-----
 -----------------------------------------------------------

 -------------------------------------------------
 -------------------------------------------------
 -16p14----16p14----16p14----16p14----16p14----16-
 -------16-------16-------16-------16-------16----
 -------------------------------------------------
 -------------------------------------------------

 -------------------------------------------------
 -17p15-17p15-------------------------------------
 -------------16-14-15-16-14----------------------
 ----------------------------16-14/12-------------
 -------------------------------------14-12-13-14-
 -------------------------------------------------

 -------------------------------------------------19~-
 -------------------------------------15-17-18-19-----
 ----------------------------14-15-16-----------------
 -12----12-14-12-14-16-14-16--------------------------
 ----14-----------------------------------------------
 -----------------------------------------------------

 back to Theme

        
Comments

No comments yet