Gametabs
Home
Tabs
Random

Turtle Power

Average rating: No ratings

Composer:

Tabber:

Style:

Instrument:

Created: February 20, 2011 at 12:00 AM

            Turtle Power (Opening Theme)
TMNT IV: Turtles in Time
Super Nintendo
Tabbed by John Adams
Composed by Kazuhiko Uehara, Harumi Ueko
2/20/2011


e|--------------------------------------------------------------------------------------------|
B|-----------------------------------------------------------------11-13-11-13-11-13-11-11-13-|
G|-------------------------------------10-12-10-12-10-12-10-10-12-----------------------------|
D|----10---12-14-12-14-12-14-12-12-14---------------------------------------------------------|
A|--1/10--------------------------------------------------------------------------------------|
E|--------------------------------------------------------------------------------------------|

|--------------------------------------------------------------|
|--------------------------------------------------------------|
|--12-12-12-12-10-12-------------------------------------------|
|-----------------------------------12-14-12-14-12-14-12-12-14-|
|--------------------------------------------------------------|
|----------------------11-12-13--------------------------------|

|---------------------------------------------------------------------------------------|
|------------------------------11-13-11-13-11-13-11-11-13-------------------------------|
|--10-12-10-12-10-12-10-10-12-------------------------------12-12-12-12-10-12--12-12-12-|
|---------------------------------------------------------------------------------------|
|---------------------------------------------------------------------------------------|
|---------------------------------------------------------------------------------------|
        
Comments

@soundsandstuff (February 21, 2011 at 2:03 AM)

:Ô:!!!


@guitargirlmarielle (November 05, 2011 at 5:04 PM)

thanks :D I was looking for this for a very long time :D