Gametabs
Home
Tabs
Random

Technodrome Elevator

Average rating: 5.000

1 ratings

Composer:

Tabber:

Style:

Instrument:

Created: August 28, 2008 at 12:00 AM

            TMNT 4 - Elevator

You hear this tune on the last stage while riding the elevator. 
Be sure to check out the accompanying video for the timing on this tune. Enjoy

e-------------------------------------------------------------------------
B-------------------------------------------------------------------------
G-------------------------------------------------------------------------
D-12-10-9-------------------12-10-9---------------------------------------
A---------10------------------------10------------------------------------
E------------10-13-13-10---------------10-13-13-10------------------------
	
e-------------------------------------------------------------------------
B-------------------------------------------------------------------------
G-------------------------------------------------------------------------
D-12-10-9-------------------12-10-9---------------------------------------
A---------10------------------------10----15-15-12------------------------
E------------10-13-13-10---------------10-13-13-10------------------------

e-------------------------------------------------------------------------
B-------------------------------------------------------------------------
G-10-----------12-10-10---------------------------------------------------
D----12--10-12----------10-10-10-10-12--10-10-10-10-12--10-10-10-10-10-12-
A-------------------------------------------------------------------------
E-------------------------------------------------------------------------

e-----------------------------------------------------------------------------
B---------------------10-10-10-10--10-10-10-10--------10-10-10-10-10-10-10-13-
G-10-----------12-10---------------------------12-13--------------------------
D----12--10-12----------------------------------------------------------------
A-----------------------------------------------------------------------------
E-----------------------------------------------------------------------------

	The song repeats from here, so play it til' you pass out. 

        
Comments

No comments yet