Gametabs
Home
Tabs
Random

Star Base: Where No Turtle Has Gone Before

Average rating: 5.000

1 ratings

Composer:

Tabber:

Style:

Instrument:

Created: July 25, 2011 at 12:00 AM

            Star Base:  Where No Turtle Has Gone Before
TMNT IV:  Turtles in Time
Super Nintendo
Tabbed by John Adams
Composed by Kôzô Nakamura, Kazuhiko Uehara, and Harumi Ueko
7/24/2011


e||----------------------------|
B||-----------12------15----14-|
G||*---------------------------|
D||*--14-----------------------|
A||----------------------------|
E||----------------------------|

----------------------------------------------12-----12--15---12----12-14-15-17--15-17--19-19-22--19-22-|
--------12-14--12-14--15-15-14-12----12-14-15-----15----------------------------------------------------|
--14-15-------------------------------------------------------------------------------------------------|
--------------------------------------------------------------------------------------------------------|
--------------------------------------------------------------------------------------------------------|
--------------------------------------------------------------------------------------------------------|

----------------------------------------------12-----12--15---12----12-14-15-17--15-17--19-19-22--19-22-|
--------12-14--12-14--15-15-14-12----12-14-15-----15----------------------------------------------------|
--14-15-------------------------------------------------------------------------------------------------|
--------------------------------------------------------------------------------------------------------|
--------------------------------------------------------------------------------------------------------|
--------------------------------------------------------------------------------------------------------|

--15----14---13---12------15----14---13---12-|
---------------------------------------------|
---------------------------------------------|
---------------------------------------------|
---------------------------------------------|
---------------------------------------------|

--17---15-----19----17---15-----19-19-19-22--24------19-19-19-19-17-19--||
-----------17----------------17-----------------------------------------||
-----------------------------------------------------------------------*||
-----------------------------------------------------------------------*||
------------------------------------------------------------------------||
------------------------------------------------------------------------||
        
Comments

@Boheeka (July 26, 2011 at 4:54 PM)

Amazing.


@soundsandstuff (July 27, 2011 at 12:32 AM)

.......

(crawls out of sewer)

...

(looks around)

.......

Nice work dude!

(jumps back into sewer)


@Ranulf (July 27, 2011 at 5:53 AM)

falls in manhole

It's dark in here... Oh, thanks guys!

jumps back out of manhole


@Boheeka (August 03, 2011 at 4:44 AM)

Could you tab out the rhythm guitar figure too when you get a chance?


@soundsandstuff (August 05, 2011 at 2:37 AM)

Hey guys, here you go:

starbase rhythm guitar

.txt

.mid

.gp5

I tried to make this tab as close to the original as possible but there were some parts I couldn't quite make out the rhythm guitar so I just placed some power chords that fit with the song in there, it works out in a way since I think it makes the tab more playable. Enjoy!


@Aleph (March 30, 2012 at 6:41 PM)

Hm, what do I do for that last part if I only have 22 frets? xD


@Aleph (March 31, 2012 at 7:53 PM)

Seems to require some serious bending xD I can only get the 22nd fret to go up like a half step, and it has like no sustain, either, but I guess it sounds okay to me, so I'll just stick with that. Thanks. :3