Gametabs
Home
Tabs
Random

Sewer Surfin'

Average rating: 5.000

1 ratings

Composer:

Tabber:

Style:

Instrument:

Created: January 19, 2010 at 12:00 AM

                         TMNT 4: Turtles in Time - Sewer Surfin' BASS TAB
                        Harumi Ueko, Kazuhiko Uehara

                  Tabbed by auriplane ([email protected])



Five-string bass, standard tuning.  If you look at the GP5, it's for 
six-string, but I didn't use the C so I took it out of the text tab.

BTW, In Part B, the reason I put the 5th measure in 6th position instead
of in first position up a string, is because there's a slide down at
the end of that measure.


        Intro


G |----------------|----------------|----------------|----------------|
D |----------------|----------------|----------------|----------------|
A |----------------|----------------|----------------|----------------|
E |3---------------|L-------------3-|3---------------|L---------------|
B |----------------|------------35--|----------------|----------4-6---|


G |----------------|----------------|----------------|----------------|
D |----------------|----------------|----------------|----------------|
A |----------------|----------------|----------------|----------------|
E |----3-------3---|----3-------3---|----3-------3---|----------------|
B |----------------|----------------|----------------|4-4-4-4-4-4-6-6-|


        Part A
        Repeat back to here.


G |----------------|----------------|----------------|----------------|
D |----5-------5---|----------------|----------------|--5-----------4-|
A |----------------|----------------|3-3-3-3-----6---|------7---8-----|
E |3-3---3-3-3---6-|L-6-6-6--36-63--|--------------3-|L-----------2---|
B |----------------|--------6-----6-|--------4-4-----|----5---6-------|


G |----------------|----------------|----------------|----------------|
D |----5-------5---|----------------|----------------|----------------|
A |----------------|----------------|3-3-3-3-----6---|----------------|
E |3-3---3-3-3---6-|L-6-6-6--36-63--|--------------3-|L-3-3-3-3-----3-|
B |----------------|--------6-----6-|--------4-4-----|----------6-----|


        Part B


G |----------------|----------------|----------------|----------------|
D |5---3-5---5---5-|----5-----------|5---3-5---5---5-|----5-------3-5-|
A |----------------|----------------|----------------|----------------|
E |--3-----3---3---|1-3---3-3-1-1-3-|--3-----3---3---|1-3---3-3-3-----|
B |----------------|----------------|----------------|----------------|


G |----------------|----------------|----------------|----------------|
D |----------------|----------------|5---3-5---5---5-|----5---3---2-5-|
A |--8-----8-------|--3-----3-------|----------------|----------------|
E |----------------|----------------|--3-----3---3---|3-3---3---------|
B |6---6-6---------|1---1-1---------|----------------|----------------|


        Part C


G |----------------|----------------|----------------|----------------|
D |5---3-5---5---5-|----5-----------|5---3-5---5---5-|----5-------3-5-|
A |----------------|----------------|----------------|----------------|
E |--3-----3---3---|1-3---3-3-1-1-3-|--3-----3---3---|1-3---3-3-3-----|
B |----------------|----------------|----------------|----------------|


G |----------------|----------------|----------------|----------------|
D |----------------|----------------|5---3-5---5---5-|L---------3-4-5-|
A |--8-----8-------|--3-----3-------|----------------|------2-5-------|
E |----------------|----------------|--3-----3---3---|--3-6-----------|
B |6---6-6---------|1---1-1---------|----------------|----------------|


        Part D


G |----------------|----------------|----------------|----------------|
D |----------------|----------------|--------3-3-2---|3-3-2---3-------|
A |----------------|----------------|----2-5---------|----------------|
E |3---6-----------|6---------6---3-|L-3-------------|----------3-5-6-|
B |----------6-----|------6-----6---|----------------|----------------|


G |----------------|----------------|----------------|----------------|
D |----------------|----------------|----------------|----------------|
A |----------------|----------------|----2-0-3-0-4-5-|--3---4-5-------|
E |3---6-----------|6---------6---5-|3-5-------------|----------------|
B |----------6-----|------6-----6---|----------------|----------------|


        Repeat back to Part A.



        
Comments

@soundsandstuff (January 20, 2010 at 7:07 AM)

xD!!