Gametabs
Home
Tabs
Random

Level 2

Average rating: No ratings

Composer:

Tabber:

Style:

Instrument:

Created: October 17, 2012 at 12:00 AM

            Teenage Mutant Ninja Turtles 3: The Manhattan Project - Level 2
Platform: NES
Developer/Publisher: Konami
Composed by: Keizo Nakamura
	     Tomoya Tomita
	     Yuichi Sakakura


Electric Guitar Tab Created By: soundsandstuff channel www.youtube.com/user/soundsandstuff
Completed on: 10/15/12


Standard Tuning

   Part A
E|-------------------------------------------------|-14------------------------------------------|
B|-------------------------------------------------|--------16----14----------14----14-16--------|
G|-------------------------14----14-14-14-16----16-|--------------------15-------15--------14-13-|
D|-------------------------------------------------|---------------------------------------------|
A|-------------------------------------------------|---------------------------------------------|
E|-------------------------------------------------|---------------------------------------------|


E|-----------------------------------------|-14-------------------------17----16-----16--|
B|-----------------------------------------|----------16----14----16--------------19-----|
G|-----------------14----14-14-14-16----16-|---------------------------------------------|
D|-16------13------------------------------|---------------------------------------------|
A|-----------------------------------------|---------------------------------------------|
E|-----------------------------------------|---------------------------------------------|

			Part B
E|---------19---------|----------16--------14----13-----------13----|-14-----16-----18----16-----18-----19----|
B|-19-----------------|-13-14-16--------16--------------16----------|-----------------------------------------|
G|--------------------|---------------------------------------------|-----------------------------------------|
D|--------------------|---------------------------------------------|-----------------------------------------|
A|--------------------|---------------------------------------------|-----------------------------------------|
E|--------------------|---------------------------------------------|-----------------------------------------|


E|-21-----19----18----16-----------16----18--|----------------------16-16----18-18----19-----|
B|--------------------------19---------------|----18-18----19-19-----------------------------|
G|-------------------------------------------|-----------------------------------------------|
D|-------------------------------------------|-----------------------------------------------|
A|-------------------------------------------|-----------------------------------------------|
E|-------------------------------------------|-----------------------------------------------|



  Part C
E|-----------------------------------------------|--------------17-16-----------------|
B|-19-19-19-19-17-19----17-----16----------16----|-19-----16----------19------16------|
G|-----------------------------------18----------|------------------------------------|
D|-----------------------------------------------|------------------------------------|
A|-----------------------------------------------|------------------------------------|
E|-----------------------------------------------|------------------------------------|


E|-17-17-17-17-16-17----16-----------16----17--|-------------------------------------------------|
B|-----------------------------19--------------|-19----19-19----19-19----19-19-------19----19-19-|
G|---------------------------------------------|----16-------16-------16-------16-------16-------|
D|---------------------------------------------|----------------------------------16-------------|
A|---------------------------------------------|-------------------------------------------------|
E|---------------------------------------------|-------------------------------------------------|


E|-----------------------------------------------|--------------17-16-----------------|
B|-19-19-19-19-17-19----17-----16----------16----|-19-----16----------19------16------|
G|-----------------------------------18----------|------------------------------------|
D|-----------------------------------------------|------------------------------------|
A|-----------------------------------------------|------------------------------------|
E|-----------------------------------------------|------------------------------------|


E|-17----19----17-19----17-----16----------16----|-------------------------------------------------|
B|-----------------------------------19----------|-12----11----12-11-------------------------------|
G|-----------------------------------------------|----------------------14----14-14-14-16----16----|
D|-----------------------------------------------|----11----11-------------------------------------|
A|-----------------------------------------------|-------------------------------------------------|
E|-----------------------------------------------|-------------------------------------------------|


E|--------|--------|
B|--------|--------|
G|--------|--------|
D|--------|--------|
A|--------|--------|
E|--------|--------|

Repeat from Part B

-----------------------------------------------------------------------------


Thank you for playing!!!!!



        
Comments

No comments yet