Gametabs
Home
Tabs
Random

Krato's Theme

Average rating: 5.000

3 ratings

Composer:

Tabber:

Style:

Instrument:

Created: January 01, 2008 at 12:00 AM

            Kratos's Theme

(the x's show how long to hold the notes [ex: xx = 2 beats] - if 
not marked, then it's one beat)

How to play:
Part 1 [x2] (take 2nd ending on repeat)
Part 2 [x2] (only play the (2) the first time through), then back to Part 1


Part 1 
e -------------------------------------------------------------  ------- ||
B -------------------------------------------------------------  - 1st - ||
G -------------------------------------------------------------  ------- ||
D ---------------------------0-----------2------0--------------  -------:||
A ---------------------2--0----3--2---------2-----3--0-2-------  -0----- ||
E ---------0------2-3------------------------------------------  ---3-2- ||
  .........xxx....................xxx....xx............xxx.............. ||

e -----------
B ---- 2nd --
G -0---------
D ---4--0----
A -----------
E -----------
  ...........

Part 2
(the music breaks & goes softer when it cuts back to Part 1)
e ------------------------------------------------------------------ ||---
B ------------------------------------------------------------------ ||---
G ----------------------------------------------------0------------- ||---
D ---------------------------------------0----2---4------4----------:||---
A --3-----2-0----0-----------0------2--------------------------(2)-- ||---
E ------------3--------2--3-----0-----3----------------------------- ||---
....xxx..........xxx............xx....xx.................xx......... ||...

        
Comments

@Anonymous (January 03, 2008 at 7:15 PM)

I like it! Seems to falter a bit on the G string though.


@linn (January 05, 2008 at 9:59 PM)

mtt chikeeeeee thales of symphonia eh o melhorr faltou a cifra de tecladoo =/ =´(


@Yamousa (February 12, 2008 at 1:16 PM)

it's an easy tab and it's very good to play =)


@Detrox (June 28, 2008 at 10:52 AM)

you are right Yamousa i like this tabs and it's very easy =D


@Gastrox (March 28, 2009 at 9:09 PM)

I agree with you two, nice and easy

Sacred powers, cast your purifying light upon these corrupt souls, REST IN PEACE SINNERS! JUDGEMENT!