Gametabs
Home
Tabs
Random

Leon

Average rating: 3.000

1 ratings

Composer:

Tabber:

Style:

Instrument:

Created: December 24, 2007 at 12:00 AM

            Lead Guitar
     E  Q.     Q    S. T E     E  H.           E     S S Q.     Q    S. T E   
E||-----8------7----L-------|---------------------|------8------7----L-------|
B||----------------------8--|--L------------------|-----------------------8--|
G||-------------------------|-----9------------L--|--L-----------------------|
D||-------------------------|---------------------|--------------------------|
A||-------------------------|---------------------|--------------------------|
E||-------------------------|---------------------|--------------------------|


  E   H         Q.        E  H        E.   E.     E  Q.     T S.  E.   E.   
-----12--------10------|--L--------------------|--7--8------L----10---12---|
--L--------------------|--------------9---10---|---------------------------|
-----------------------|-----------------------|---------------------------|
-----------------------|-----------------------|---------------------------|
-----------------------|-----------------------|---------------------------|
-----------------------|-----------------------|---------------------------|


   E   E.   E.  S. T  E.   E.     S. T  H.           E   
--13--11---10---8----11---10---|--8----10------------L--|
-------------------------------|------------------------|
-------------------------------|------------------------|
-------------------------------|------------------------|
-------------------------------|------------------------|
-------------------------------|------------------------|


  S S Q.     Q    S. T E     E  H.           E     S S Q.     Q    S. T E   
--L---8------7----L-------|---------------------|------8------7----L-------|
-----------------------8--|--L------------------|-----------------------8--|
--------------------------|-----9------------L--|--L-----------------------|
--------------------------|---------------------|--------------------------|
--------------------------|---------------------|--------------------------|
--------------------------|---------------------|--------------------------|


  E   H         Q.        E  H        E.   E.     E  Q.     T S.  E.   E.   
-----12--------10------|--L--------------------|--7--8------L----10---12---|
--L--------------------|--------------9---10---|---------------------------|
-----------------------|-----------------------|---------------------------|
-----------------------|-----------------------|---------------------------|
-----------------------|-----------------------|---------------------------|
-----------------------|-----------------------|---------------------------|


   E   E.   E.  S. T  E.   E.     S. T E.  E.  S. T E.  E.   
--13--11---10---8----11---10---|--8----7--------------------|
-------------------------------|-----------9---6--------6---|
-------------------------------|--------------------7-------|
-------------------------------|----------------------------|
-------------------------------|----------------------------|
-------------------------------|----------------------------|


  S. H.           E  T    W                   W                 
--4--------------------|-------------------|-------------------|
-----------------------|-------------------|-------------------|
-----------------------|-------------------|-------------------|
-----------------------|-------------------|-------------------|
-----------------------|-------------------|-------------------|
-----------------------|-------------------|-------------------|


  W                   W                   W                   W                 
-------------------|-------------------|-------------------|-------------------|
-------------------|-------------------|-------------------|-------------------|
-------------------|-------------------|-------------------|-------------------|
-------------------|-------------------|-------------------|-------------------|
-------------------|-------------------|-------------------|-------------------|
-------------------|-------------------|-------------------|-------------------|


  W                   E  E  E  S. T E  E  E  E     E  E  E  S. T E  E  E  E   
-------------------|-----8--7--8----7--5--4--5--|--7--8--7--8----7--5--4--5--|
-------------------|----------------------------|----------------------------|
-------------------|----------------------------|----------------------------|
-------------------|----------------------------|----------------------------|
-------------------|----------------------------|----------------------------|
-------------------|----------------------------|----------------------------|


  E  E  E  S. T E  E  E  E     E  E  E  S. T E  E  E  E   
--7--8--7--8----7--5--4--5--|--7--8--7--8----7--5--4--5--|
----------------------------|----------------------------|
----------------------------|----------------------------|
----------------------------|----------------------------|
----------------------------|----------------------------|
----------------------------|----------------------------|


  E  E  E  S. T E  E  E  E     E  E  E  S. T E  E  E  E   
--7--8--7--8----7--5--4--5--|--7--8--7--8----7--5--4--5--|
----------------------------|----------------------------|
----------------------------|----------------------------|
----------------------------|----------------------------|
----------------------------|----------------------------|
----------------------------|----------------------------|


  E  E  E  S. T E  E  E  E     E  E  E  S. T E  E  E  E   
--7--8--7--8----7--5--4--5--|--7--8--7--8----7--5--4--5--|
----------------------------|----------------------------|
----------------------------|----------------------------|
----------------------------|----------------------------|
----------------------------|----------------------------|
----------------------------|----------------------------|


  E  H        Q    E    
--7-------------------||
----------------------||
----------------------||
----------------------||
----------------------||
----------------------||




Duration Legend
---------------
W - whole
H - half
Q - quarter
E - 8th
S - 16th
T - 32nd
X - 64th
. - note dotted
|-n-|  - n-tuplets


Tablature Legend
----------------
L - tied note

        
Comments

No comments yet