Gametabs
Home
Tabs
Random

Tasogare

Average rating: 5.000

5 ratings

Composer:

Tabber:

Style:

Instrument:

Created: January 14, 2014 at 12:00 AM

               Tasogare [aka 黄昏]         from the "Tales from Earthsea" image album [aka ゲド戦記歌集]

Music by Tamiya Terashima (singer : Aoi Teshima) >> Guitar arrangement by Diralark

soundtrack :  http://www.youtube.com/watch?v=my8ZZHIN-9U

Solo Guitar, std tuning, let ring, TEMPO = 87

         IX                                                                   
                      NH              NH       NH                     NH      
      E  E  E   E     E   E    E      E        E  E  E   Q     E      Q       
E||---------------------------(0)--------|--------------------(0)-----------||
B||------------12--------(0)-------<>12--|--------------12---------<>12-----||
G||*--------9----------------------------|-----------9---------------------*||
D||*-----9-------------------------------|--------9------------------------*||
A||--------------------------------------|----------------------------------||
E||---0------------<>12------------------|--<>12----------------------------||


                         NH                                                          NH  
  E  E  E  Q.      E     E     Q    S S  S S  E  E   E  E     E  E  E  Q.      E     E   
--0--------7~------L--------|---------7p-5-----------------|--0--------7~------L--------|
----------------------<>12--|-------L------8p-7--5h--7--8--|----------------------<>12--|
--9-----9----------L--------|------------------------------|--9-----9----------L--------|
--9--9-------------L--------|------------------------------|--9--9-------------L--------|
----------------------------|------------------------------|----------------------------|
--0----------------x--------|--0----L-------------------L--|--0----------------x--------|


                                          II           IV(3)                                         
                                ^         ^            ^                            ^                
  Q    S S  S S  E  E  E  E     Q    Q    Q    Q       H         H            E  E  Q    Q    E  E   
---------7p-5----------------|----------------------|----------------------|------------------------|
---------L----8p-7--5--------|--0----3----2---------|--4--------(4)--------|--------0----0----------|
-----------------------7--6--|--0---------2----2----|--4--------(4)--------|--------0---------2--0--|
-----------------------------|--0---------2---------|--4--------(4)--------|--2---------------------|
-----------------------------|------------4---------|--2-------------------|-----2------------------|
--0----L------------L--------|--3-------------------|----------------------|--0---------------------|


                                      ^                        ^                 ^                
  E  E  Q    Q    E  E     E  E  Q    Q    E  E     E  Q    E  H           E  E  Q    Q    E  E   
------------------------|------------------------|----------------------|------------------------|
--------0---------------|--0-----3----2----0-----|-------------4--------|--------0----0----------|
--2---------------0--2--|--0----------2-------2--|--4-------4--4--------|--------0---------2--0--|
-----2-------2----------|-----0------------------|--4--4----------------|--2---------------------|
--0---------------------|-------------0----------|--2-------------------|-----2------------------|
------------------------|--3---------------------|----------------------|--0---------------------|


  ^                                    ^                                           ^                 
  E  E  Q    Q    E   E     E  E  Q    Q    E    E      H        H           E  E  Q    E  E  E  E   
-------------------------|---------------------------|--------------------|-------------------------|
--------0----------------|--------0------------------|--------------------|--------0----0-----------|
--2----------------------|--0----------2-------------|--------------------|--------0----------2--0--|
-----2------------2h--4--|-----2-------0----4p--(0)--|--2-----------------|--2----------------------|
--0----------0-----------|--3------------------------|--2-----------------|-----2----------2--------|
-------------------------|---------------------------|-----------0--------|--0----------------------|


                                      ^                        ^                   ^                 
  E  E  Q    Q    E  E     E  E  Q    Q    E  E     E  Q    E  Q    E  E     E  E  Q    E  E  E  E   
------------------------|------------------------|------------------------|-------------------------|
--------0---------------|--0-----3----2----0-----|-------------4----------|--------0----0-----------|
--2---------------0--2--|--0----------2-------2--|--4-------4--4----------|--------0----------2--0--|
-----2-------2----------|-----0------------------|--4--4---------------4--|--2----------------------|
--0---------------------|-------------0----------|--2---------------6-----|-----2----------2--------|
------------------------|--3---------------------|------------------------|--0----------------------|


                                       ^              ^                                    ^           
  E  E  Q    Q    E   E     E  E  Q    Q    E   E     H         Q     E  E     E  E  E  E  Q    E  E   
-------------------------|-------------------------|------------------------|-------------------------|
--------0----------------|--------0----------------|---------------------0--|--1-----0--1--3-------1--|
--2----------------------|--0----------2-----------|------------------2-----|--2----------------2-----|
-----2-------2----2h--4--|-----2-------0----4p--2--|--2---------------------|-----2-------------------|
--0----------------------|--3----------------------|--2---------------------|--0----------------------|
-------------------------|-------------------------|-----------(0)----------|--------------2----------|


                                                                   /                               
                                     ^             ^                         ^                     
  E  Q    E  Q    Q       E  E  Q    Q    E  E     Q    E  E  Q    E   E     Q    E  E  Q    Q     
-----------------------|------------------------|-------------------------|-------------0---------|
--0----------0---------|--------1----0-------0--|-------------0-----------|------------------1----|
--0---------------0----|--2---------------2-----|--0-------2--------------|-----------------------|
----------0------------|-----2------------------|------------------5p--4--|--2-------2------------|
-----2-----------------|--0---------------------|-------2-----------------|--3----3---------------|
--3--------------------|-------------2----------|--0----------------------|-----------------------|


                                                   II                                             
             ^             ^          ^                       ^                 ^                 
  E  E  Q    Q    E  E     Q    E  E  Q    Q       E  Q    E  H           E  E  Q    E  E  E  E   
------------------------|-----------------------|-------------2--------|-------------------------|
--3-----5---------------|--1----0--1--3---------|--4----------4--------|--------0----0-----------|
--4--4-------0-------0--|--2---------------2----|--4-------4--4--------|--------0----------2--0--|
-------------2----------|-----------------------|-----4----------------|--2----------------------|
------------------2-----|--0--------------------|--2----------2--------|-----2-------------------|
--2----------0----------|-------------2---------|----------------------|--0-------------0--------|


                                      ^                                                                
  E  E  Q    Q    E  E     E  E  Q    Q    E  E     E  Q    E  E  Q    E     E  E  E  E  E  Q    S  S  
------------------------|------------------------|------------------------|---------------------------|
--------0---------------|--0-----3----2----0-----|-------------4----------|--------0-----0------------|
--2---------------0--2--|--0----------2-------2--|--4----------4-------4--|--------0-------------2p-0-|
-----2-------2----------|-----0------------------|--4--4----------4-------|--2--------------2---------|
--0---------------------|-------------0----------|--2-------2-------------|-----2-----2---------------|
------------------------|--3---------------------|------------------------|--0------------------------|


  E  E  Q    E  Q    S  S    E  E  E  E  E  Q    S  S    E  E  E  E  H         
--------------------------|---------------------------|-----------------------|
--------0-----------------|--------0------------------|--------------0--------|
--2----------2------------|--0-----------2------------|--------0--------------|
-----2----------2----2h-4-|-----2-----0--0--0----4p-0-|--2--------2-----------|
--0----------0------------|--3------------------------|-----2-----------------|
--------------------------|---------------------------|--0--------------------|


                             II                                                 
  E  E  E  E  E  E  E  E     E  E  E  E  E  E  E  E     E  E  E  E  E  E  Q     
-----------0--0--------0--|--------------------------|-----------0--0-----2----|
--0--------0--------0-----|--3-----------------------|--0--------0-------------|
--0--0--------------------|--4-----4--2--4--------4--|--0--0-------------------|
-----------------2--------|-----4--------4-----4-----|-----------------2-------|
--------2-----------------|--2--------------2--------|--------2----------------|
--0-----------------------|--------------------------|--0----------------------|


  II                                                   II                                              
  E  E  E  E  E  Q    E     E  E  E  E  E  E  E  E     E  Q    E  E  Q    E     E  Q    E  E  Q    E   
-------------------------|--------------------------|------------------------|------------------------|
--3-----2--3-------------|--------0-----0-----3--0--|------------------------|-------------3----------|
--4-----------4----------|--0-----0-----------------|--2-------4----------2--|--0-------0----------4--|
-----4--------4-------4--|-----2-----------2--------|-----4-------4----------|-----2----------4-------|
--2--------------2-------|--3--------3--------------|--2-------------2-------|--0---------------------|
-------------------------|--------------------------|------------------------|-------------2----------|


  II                                                 II                                                 
  ^                                                                                                     
  Q.     Q    E  E  E     E  E  E  E  E  E  E  E     E  E  E  E  E  E  E  E     E  E  E  E  E  E  Q     
--2--------------------|-----------0--0--------0--|--------------------------|-----------0--0-----2----|
--3--------------3-----|--0--------0--------0-----|--3-----------------------|--0--------0-------------|
--2-----------------2--|--0--0--------------------|--4-----4--2--4--------4--|--0--0-------------------|
--------------4--------|-----------------2--------|-----4--------4-----4-----|-----------------2-------|
--2------2-------------|--------2-----------------|--2--------------2--------|--------2----------------|
-----------------------|--0-----------------------|--------------------------|--0----------------------|


                      s                                                           
                                                           ^                      
  E  E  E  E  E  S S  E   E     E  E  E  E  E  E  E  E     E  Q    E  Q    E  E   
-----------------------------|--------------------------|------------------------|
--3-----2--3-----------------|--------0-----0-----3--0--|------------------------|
--4-----------4-------4---4--|--0-----------0-----------|--2-------4----------2--|
-----4--------4----4---------|-----2-----------2--------|--4--4-------4----4-----|
--2--------------2---(2)-----|--3--------3--------------|--2---------------------|
-----------------------------|--------------------------|------------------------|


                                                                          III          -]           
  ^          ^             ^                       ^                                                
  E  Q    E  E  Q    E     W                       H.            E  E     E   E  E  E  E  E  E  E   
--0---------------------|--0----------------|--<>(12)------------------|---------------------------|
--1----------3----------|--0----------------|--<>(12)------------------|------------3--3-----2--3--|
------------------------|--0----------------|--------------------------|--4---------------0--------|
-----2----2--4--4-------|-------------------|--------------------------|--5------5-----------------|
--0----------2-------2--|-------------------|--------------------------|------5--------------------|
------------------------|--0----------------|------0-------------0--2--|--3------------------------|


  II                        --                        --                      
  E  E  E  E  E  E  Q       E  E  E  E  Q    E  E     E   E  E  E  Q    Q     
-------------------------|-------------------------|-------------------------|
--2----------------------|--------------3-------3--|--2h--3-----2------------|
--2-----2-----4-----2----|--------4----------------|---------4-----2---------|
--2--2-----------2-------|--4--------4-------4-----|--------------------4----|
--0--------4-------------|--2--2-------------------|--2----------------------|
-------------------------|-------------------------|---------------2---------|


  III                                      II           II                   --                
                                           ^            ^                    ^                 
  E   E  E  E  E  E  E   E     E  E  E  E  Q    Q       H.           Q       W                 
----------------------------|--0---------------------|--2-----------------|-------------------|
------------3--3-----2h--3--|--2-----2-----2---------|--4-----------------|--4----------------|
--4---------------0---------|--2--2-----2-------2----|--------------------|--4----------------|
--5------5------------------|--2-----------2---------|--4-----------------|--4----------------|
------5---------------------|--0-----------4---------|--2-----------------|-------------------|
--3-------------------------|------------------------|--------------------|--2----------------|


                                  ^                               ^                
                                                                       |--3--|     
  E  E  E  E  Q    E  E     E  E  Q    E  E  E  E     E  E  E  E  Q    S  S  S E   
-------------------------|-------------------------|------------------------------|
--------0-----0----------|--------0----------------|--0-----3-----2----0h-2p-0----|
--------0----------2--0--|--2-----2----------0--2--|--0--------0--2------------2--|
--2----------------------|-----2-------2-----------|-----0------------------------|
-----2-----2-------------|--0-------------0--------|--------------0---------------|
--0----------------------|-------------------------|--3---------------------------|


              ^                                                                     
  E  E  E  E  Q    E  E     E  E  E  E  E  E  E  S  S    E  E  E  E  E  E  E  S  S  
-------------------------|----------------------------|----------------------------|
--------------4----------|--------0-----0-------------|--------0-------------------|
--4-----4-----4----------|--------0--------------2p-0-|--2--------2--------2-------|
--4--------4----------4--|--2--------2--------2-------|-----2-----2-----2-----2h-4-|
--2--2-------------6-----|-----2-----------2----------|--0-----------0-------------|
-------------------------|--0-------------------------|----------------------------|


              ^                     ^    ^                                                               
  E  E  E  E  Q    E  S  S    E  E  Q    H           E  E  E  E  E  E  E  E     E  E  E  E  E  E  E  E   
---------------------------|----------------------|--------------------------|--------------------------|
--------0------------------|-------------0--------|--------0-----0-----------|--------0-----------------|
--0-----------2------------|--------0----0--------|--------0-----------2--0--|--2-----2-----------0--2--|
-----2-----2--0----0--4p-2-|--2-----2-------------|--2--------------2--------|-----2-----2-----2--------|
--3------------------------|-----2----------------|-----2-----2--------------|--0-----------0-----------|
---------------------------|--0-------------------|--0-----------------------|--------------------------|


                                         ^                                        
  E  E  E  E  E  E  E  E     E  E  E  E  Q    E  E     E  E  E  E  E  E  E  S  S  
--------------------------|-------------------------|----------------------------|
--0-----3-----2-----0-----|--------------4----------|--------0-----0-------------|
--0--------0--2--------2--|--4-----4-----4-------4--|--------0--------------2p-0-|
-----0-----------2--------|--4--------4----------4--|--2--------2--------2-------|
--------------0-----------|--2--2-------------6-----|-----2-----------2----------|
--3-----------------------|-------------------------|--0-------------------------|


                                                                      ^           
  E  E  E  E  E  E  E   E     E  E  E  E  E  Q    S  S    E  E  E  E  Q    E  E   
---------------------------|---------------------------|-------------------------|
--------0------------------|--------0------------------|--------------0-------0--|
--2--------2---------------|--0-----------2------------|--------0-----0----2-----|
-----2-----2--2-----2h--4--|-----2-----2--0--0----4p-0-|--2-----2--2-------------|
--0--------------0---------|--3------------------------|-----2-------------------|
---------------------------|---------------------------|--0----------------------|


                                                                    IV           
  ^           ^              ^                          ^           ^            
  E  E  E  E  E  E  E  E     E  E  E  E  E  E  E  E     E  E  E  E  E  E  E  E   
--------------------------|--------------------------|--------------------------|
--1-----0--1--3-----3-----|--0-----------0-----0-----|--------1--------------0--|
--2--------------------2--|--------0--------------0--|--2--------2--4-----------|
-----2--------0-----------|-----0-----------0--------|-----2-----------4--7-----|
--0-----------------------|-----------2--------------|--0-----------6-----------|
-----------------2--------|--3-----------------------|--------------------------|


  E  E  E  E  E  E  E   E     E  E  E  E  E  E  E  E     E  E  E  E  E  E  E  E   
---------------------------|--------------0-----------|--------------------------|
--------------0------------|--------------------1-----|--3-----5-----------------|
--0--------2---------------|--------0--------------0--|--4-----------0--------0--|
--------2-----------5p--4--|--2--------2-----2--------|-----2-----2--------2-----|
-----2---------------------|--3--3--------3-----------|-----------------2--------|
--0--------------0---------|--------------------------|--2-----------0-----------|


                                        ^           ^     ^                  ^                      
  E  E  E  E  E  E  E  E     E  Q    E  H           E  E  Q    Q    E  E     E  E  Q    Q    E  E   
--------------------------|-------------2--------|------------------------|------------------------|
--1-----0--1--3--------1--|-------------4--------|--------0----0----------|--------0---------------|
--2-----------------2-----|--4-------4--4--------|--------0---------2--0--|--2---------------0--2--|
-----2-----------0--------|--4--4----------------|--2---------------------|-----2-------2----------|
--0-----------------------|--2----------2--------|-----2------------------|--0---------------------|
--------------2-----------|----------------------|--0---------------------|------------------------|


             ^              ^          ^           ^     ^                  ^                       
  E  E  Q    Q    E   E     E  Q    E  H           E  E  Q    Q    E  E     E  E  Q    Q    E   E   
-------------------------|----------------------|------------------------|-------------------------|
--0-----3----2-----------|-------------4--------|--------0----0----------|--------0----------------|
--0----------2----4p--2--|--4----------4--------|--------0---------2--0--|--2----------------------|
-----0-------------------|--4--4----4-----------|--2---------------------|-----2-------2----2h--4--|
-------------0-----------|--2----------6--------|-----2------------------|--0----------------------|
--3----------------------|----------------------|--0---------------------|-------------------------|


  ^          ^                ^                                                                       
  E  E  Q    Q    E    E      W                   E  E  E  E  E  E  E  E     E  E  E  E  E  E  E  E   
---------------------------|--0----------------|-----------0--0--------0--|--------------------------|
--------0------------------|--0----------------|--0--------0--------0-----|--3-----------------------|
--0----------2-------------|--0----------------|--0--0--------------------|--4-----4--2--4--------4--|
-----2-------0----4p--(0)--|--2----------------|-----------------2--------|-----4--------4-----4-----|
--3------------------------|--2----------------|--------2-----------------|--2--------------2--------|
---------------------------|--0----------------|--0-----------------------|--------------------------|


                                                                                 ^                       
  E  E  E  E  E  E  Q       E  E  E  E  E  Q    E     E  E  E  E  E  E  E  E     Q    E  E  E  E  E  E   
-----------0--0-----2----|-------------------------|--------------------------|-------------------------|
--0--------0-------------|--3-----2--3-------------|--------0-----0-----3--0--|-------------------------|
--0--0-------------------|--4-----------4----------|--0-----------0-----------|--2-------4--------2-----|
-----------------2-------|-----4--------4-------4--|-----2-----------2--------|-------4-----4--------4--|
--------2----------------|--2--------------2-------|--3--------3--------------|--2-------------2--------|
--0----------------------|-------------------------|--------------------------|-------------------------|


                             ^                                                                           
  E  E  E  E  E  E  E  E     Q.     Q    E  E  E     E  E  E  E  E  E  E  E     E  E  E  E  E  E  E  E   
--------------------------|--2--------------------|-----------0--0--------0--|--------------------------|
--------1-----3-----------|--3--------------3-----|--0--------0--------0-----|--3-----------------------|
--0--------0--------4-----|--2-----------------2--|--0--0--------------------|--4-----4--2--4--------4--|
-----2-----------4--------|--------------4--------|-----------------2--------|-----4--------4-----4-----|
--0--------------------2--|--2------2-------------|--------2-----------------|--2--------------2--------|
--------------2-----------|-----------------------|--0-----------------------|--------------------------|


                                                s                                  
  E  E  E  E  E  E  Q       E  E  E  E  E  S S  E   E     E  E  E  E  E  E  E  E   
-----------0--0-----2----|-----------------------------|--------------------------|
--0--------0-------------|--3-----2--3-----------------|--------0-----0-----3--0--|
--0--0-------------------|--4-----------4-------4---4--|--0-----------0-----------|
-----------------2-------|-----4--------4----4---------|-----2-----------2--------|
--------2----------------|--2--------------2---(2)-----|--3--------3--------------|
--0----------------------|-----------------------------|--------------------------|


  ^                       ^         ^            ^                                            
  Q.     E  Q    E  E     Q    Q    Q    Q       W                   E  E  E  Q.      E   E   
-----------------------|--0-------------------|--0----------------|--0--------7~------L------|
-----------------------|--1---------3---------|--0----------------|--------------------------|
--2------4----------2--|----------------------|--0----------------|--9-----9----------L------|
--4---------4----4-----|-------2----4----4----|-------------------|--9--9-------------L------|
--2--------------------|--0---------2---------|-------------------|--------------------------|
-----------------------|----------------------|--0----------------|--0----------------L---x--|


  Q    S S  S S  E  E   E  E     E  E  E  Q.      E   E     Q    S S  S S  E  E  E  E   
---------7p-5-----------------|--0--------7~------L------|---------7p-5----------------|
--------------8p-7--5h--7--8--|--------------------------|--------------8p-7--5--------|
------------------------------|--9-----9----------L------|-----------------------7--6--|
------------------------------|--9--9-------------L------|-----------------------------|
------------------------------|--------------------------|-----------------------------|
--0----L-------------------L--|--0----------------L---x--|--0----L------------L--------|


  ^         ^            ^                  
  Q    Q    Q    Q       W                  
----------------------|-------------------||
--0----3----2---------|--4----------------||
--0---------2----2----|--4----------------||
--0---------2---------|--4----------------||
------------4---------|--2----------------||
--3-------------------|-------------------||

Legend
---------------
W - whole duration
H - half
Q - quarter
E - 8th
S - 16th
s - staccato (means "play then kill the sustain of note" )
. - note dotted
|-n-|  - n-tuplets
L - tied note
x - don't touch chord but hit the table guitar wood with your thumb ,then play the next note (the E bass)
(n) - ghost note
NH - natural harmonic
h - hammer on
p - pull off
~ - vibrato
^ - brush up
        
Comments

@Basisti94 (January 15, 2014 at 12:04 PM)

This is great! I didn't know Aoi Teshima sang other songs besides Teru No Uta and Toki No Uta for the movie!


@Choogly (January 16, 2014 at 7:09 PM)

This is wonderful. Very powerful, ancient, and epic sounding, to my ears at least.