Gametabs
Home
Tabs
Random

Warren Report

Average rating: 5.000

1 ratings

Composer:

Tabber:

Style:

Instrument:

Created: April 12, 2012 at 12:00 AM

            Warren Report                                   

Tactics Ogre For PSP
Composed by Hitoshi Sakimoto 
Tabbed by Lemoncobbler                       

Background Guitar/Cello Sound (Capo 1)


     Q    Q    Q       Q    Q    Q       Q    Q    Q       H.            
E||-----------------|------------0----|-----------------|---------------|
B||-----------------|--0----2---------|--4----L----0----|--2------------|
G||------------2----|-----------------|-----------------|---------------|
D||-------2---------|-----------------|-----------------|---------------|
A||--0--------------|--0--------------|--0--------------|--0------------|
D||-----------------|-----------------|-----------------|---------------|


  H        Q       H.              Q    Q    Q       Q    Q    Q     
----------------|---------------|-----------------|-----------------|
----------------|--0------------|-----------------|-----------------|
--6-------------|---------------|------------0----|-----------------|
-----------7----|---------------|-------4---------|--4----2----0----|
----------------|---------------|-----------------|-----------------|
--5-------------|--5------------|--5--------------|--5--------------|


  Q    Q    Q       Q    Q    Q       Q    Q    Q       H        Q     
-----------------|------------0----|-----------------|----------------|
-----------------|--0----2---------|--4----L----0----|--2--------8----|
------------2----|-----------------|-----------------|----------------|
-------2---------|-----------------|-----------------|----------------|
--0--------------|--0--------------|--0--------------|--0-------------|
-----------------|-----------------|-----------------|----------------|


  Q    Q    Q       H        Q       Q    Q    Q       Q    Q    Q     
-----------------|--0--------7----|--7----5---------|--3----2---------|
--8----7---------|----------------|------------7----|------------3----|
------------7----|----------------|--0--------------|--0--------------|
-----------------|----------------|-----------------|-----------------|
-----------------|----------------|-----------------|-----------------|
--5--------------|--5-------------|-----------------|-----------------|


  Q    Q    Q       Q    Q    Q       H        Q       H        Q     
-----------------|-----------------|----------------|----------------|
-----------------|-------1----3----|--0-------------|----------------|
-----------------|--2--------------|-----------0----|--2-------------|
--0----2----3----|-----------------|----------------|-----------2----|
-----------------|-----------------|----------------|--0-------------|
--0--------------|--0--------------|--2-------------|----------------|


  Q    Q    Q       Q    Q    Q       H        Q       Q    Q    Q     
-----------------|-----------------|-----------3----|-------0---------|
-----------------|-------1----3----|--0-------------|--6---------1----|
-----------------|--2--------------|----------------|-----------------|
-------2----3----|-----------------|----------------|-----------------|
-----------------|-----------------|----------------|-------3---------|
--0--------------|--0--------------|--2-------------|--5--------------|


  Q    Q    Q       Q    Q    Q       H        Q       H        Q     
-----------------|-----------------|----------------|-----------3----|
-----------------|-------1----3----|--0-------------|----------------|
-----------------|--2--------------|-----------0----|--2-------------|
-------2----3----|-----------------|----------------|----------------|
-----------------|-----------------|----------------|--0-------------|
--0--------------|--0--------------|--2-------------|----------------|


  Q    Q    Q       H        Q       Q    Q    Q       Q    Q    Q     
--3----1---------|-----------5----|--L--------------|-----------------|
------------1----|--3-------------|-------8----6----|--8----6---------|
-----------------|----------------|-----------------|------------7----|
-----------------|----------------|-----------------|-----------------|
-----------------|----------------|-----------------|-----------------|
--0--------------|--0-------------|--5--------------|-----------------|


  H.              Q    H           Q    H           H.            
--0------------|--0----L--------|--0----L--------|--0------------|
---------------|----------------|----------------|---------------|
---------------|----------------|----------------|---------------|
---------------|----------------|----------------|---------------|
---------------|----------------|----------------|---------------|
--3------------|--3-------------|--2-------------|--2------------|


  H.              H           H           H           H           H         
--0------------|--0--------|-----------|-----------|-----------|-----------|
---------------|-----------|--0--------|-----------|-----------|-----------|
---------------|-----------|-----------|-----------|--2--------|--2--------|
---------------|-----------|-----------|--2--------|--0--------|--0--------|
---------------|-----------|--0--------|-----------|-----------|-----------|
--3------------|--3--------|-----------|--2--------|--0--------|--0--------|


                          v                                             
  H           H           H           H           H           H         
-----------|-----------|-----------|--1--------|--0--------|--3--------|
-----------|--2--------|--1--------|--1--------|-----------|-----------|
-----------|-----------|--2--------|--2--------|-----------|-----------|
--2--------|-----------|--0--------|-----------|-----------|-----------|
-----------|-----------|-----------|-----------|-----------|-----------|
--2--------|--1--------|--0--------|--0--------|--5--------|--5--------|


  H.              H.              Q    Q    Q       Q    Q    Q     
---------------|---------------|-----------------|-----------------|
---------------|---------------|-----------------|-----------------|
--5------------|--5------------|-----------------|------------0----|
---------------|---------------|--2---------0----|--2----3---------|
---------------|---------------|-------3---------|-----------------|
--3------------|--3------------|--2--------------|--2--------------|


  Q    Q    Q       Q    Q    Q       Q    Q    Q       H        Q     
-----------------|-----------------|-----------------|----------------|
-----------------|-----------------|-----------------|----------------|
--L----L---------|-----------------|------------2----|--0-------------|
------------3----|--3----2----0----|-----------------|----------------|
-----------------|-----------------|--2----3---------|-----------3----|
--0--------------|--0--------------|-----------------|--5-------------|


  H.              H.              H.              E  E  H         
---------------|---------------|---------------|-----------------|
---------------|---------------|--3------------|-----------------|
--0------------|---------------|---------------|-----------------|
---------------|--2------------|---------------|--0--------------|
--2------------|---------------|--0------------|-----0-----------|
---------------|--2------------|---------------|--------0--------|


  H.              H.              H.              H.              H.            
---------------|---------------|---------------|---------------|---------------|
---------------|---------------|---------------|---------------|---------------|
---------------|---------------|---------------|---------------|---------------|
---------------|---------------|---------------|---------------|---------------|
---------------|---------------|---------------|---------------|---------------|
--3------------|--2------------|--0------------|--L------------|--L------------|


  H.              H.                                            
---------------|---------------|---------------|---------------|
---------------|---------------|---------------|---------------|
---------------|---------------|---------------|---------------|
---------------|---------------|---------------|---------------|
---------------|---------------|---------------|---------------|
--L------------|--0------------|---------------|---------------|


----------------||
----------------||
---------------*||
---------------*||
----------------||
----------------||


Lead Guitar Track (sounds like a harp in the actual song!)

      H.               H.               H.               H.            
E||--18------------|--18------------|--18------------|--18------------|
B||----------------|----------------|----------------|----------------|
G||----------------|----------------|----------------|----------------|
D||----------------|----------------|----------------|----------------|
A||----------------|----------------|----------------|----------------|
E||----------------|----------------|----------------|----------------|


   H.               H.               H.               H.            
--16------------|--16------------|--16------------|--16------------|
----------------|----------------|----------------|----------------|
----------------|----------------|----------------|----------------|
----------------|----------------|----------------|----------------|
----------------|----------------|----------------|----------------|
----------------|----------------|----------------|----------------|


   H.               H.               H.               H.            
--18------------|--18------------|--18------------|--18------------|
----------------|----------------|----------------|----------------|
----------------|----------------|----------------|----------------|
----------------|----------------|----------------|----------------|
----------------|----------------|----------------|----------------|
----------------|----------------|----------------|----------------|


   H.               H.               H.               H.            
--16------------|--16------------|--16------------|--16------------|
----------------|----------------|----------------|----------------|
----------------|----------------|----------------|----------------|
----------------|----------------|----------------|----------------|
----------------|----------------|----------------|----------------|
----------------|----------------|----------------|----------------|


   H.               H.               H.              H.            
----------------|----------------|--11------------|--9------------|
--14------------|--14------------|----------------|---------------|
----------------|----------------|----------------|---------------|
----------------|----------------|----------------|---------------|
----------------|----------------|----------------|---------------|
----------------|----------------|----------------|---------------|


   H.               H.               H.               Q     Q     Q     
----------------|--13------------|--11------------|--14----13----------|
--14------------|----------------|----------------|--------------14----|
----------------|----------------|----------------|--------------------|
----------------|----------------|----------------|--------------------|
----------------|----------------|----------------|--------------------|
----------------|----------------|----------------|--------------------|


   H.               H.               H.               H.            
----------------|--13------------|--11------------|--10------------|
--14------------|----------------|----------------|----------------|
----------------|----------------|----------------|----------------|
----------------|----------------|----------------|----------------|
----------------|----------------|----------------|----------------|
----------------|----------------|----------------|----------------|


  H.              H.               H.               H.            
--9------------|--9------------|--13------------|--16------------|
---------------|---------------|----------------|----------------|
---------------|---------------|----------------|----------------|
---------------|---------------|----------------|----------------|
---------------|---------------|----------------|----------------|
---------------|---------------|----------------|----------------|


  Q     Q     Q        Q     Q     Q        H         Q        Q     H         
-------------------|--------------18----|--16--------------|--13--------------|
-------------11----|--13----14----------|------------16----|--------14--------|
-------10----------|--------------------|------------------|------------------|
-------------------|--------------------|------------------|------------------|
-------------------|--------------------|------------------|------------------|
-------------------|--------------------|------------------|------------------|


  H         Q        Q       H           Q    Q    Q       Q    Q    Q     
-----------------|--11----10g8--------|--L----8----9----|--8----6---------|
--L--------14----|--------------------|-----------------|------------9----|
-----------------|--------------------|-----------------|-----------------|
-----------------|--------------------|-----------------|-----------------|
-----------------|--------------------|-----------------|-----------------|
-----------------|--------------------|-----------------|-----------------|


  Q    Q     Q        Q     Q     Q        H         Q        H         E   E   
------------------|--------------------|------------------|--------------------|
------------------|--------------13----|------------------|--11--------11--13--|
------------------|--------11----------|--13--------13----|--------------------|
-------8----10----|--11----------------|------------------|--------------------|
------------------|--------------------|------------------|--------------------|
------------------|--------------------|------------------|--------------------|


  Q    Q    Q        H         Q       Q     Q     Q        Q     Q     Q     
--9----8----9----|------------13----|--L----11----13----|--------------------|
-----------------|--11--------------|-------------------|--13----------------|
-----------------|------------------|-------------------|--------13----------|
-----------------|------------------|-------------------|--------------13----|
-----------------|------------------|-------------------|--------------------|
-----------------|------------------|-------------------|--------------------|


   H.               Q     Q     Q        H.               H.            
----------------|--------13----14----|--16------------|----------------|
--14------------|--16----------------|----------------|--14------------|
----------------|--------------------|----------------|----------------|
----------------|--------------------|----------------|----------------|
----------------|--------------------|----------------|----------------|
----------------|--------------------|----------------|----------------|


   H.               Q     Q     Q        H.               H.            
----------------|--14----------18----|--16------------|--13------------|
--14------------|--------16----------|----------------|----------------|
----------------|--------------------|----------------|----------------|
----------------|--------------------|----------------|----------------|
----------------|--------------------|----------------|----------------|
----------------|--------------------|----------------|----------------|


   H         Q        Q    Q     Q       Q    E  S S Q       H        Q     
------------------|-------------------|-------------------|----------------|
------------------|-------------------|-------------------|----------------|
--13--------11----|--10---------------|--8----6--6-8-5----|----------------|
------------------|--------9----10----|-------------------|--8--------6----|
------------------|-------------------|-------------------|----------------|
------------------|-------------------|-------------------|----------------|


                                          v                                
  H         Q       E   E   Q    Q        Q        Q        Q        Q     
-----------------|--------------------|--------|--------|--------|--------|
-----------------|---------------9----|--11----|--11----|--11----|--11----|
-----------10----|--8-----------------|--12----|--------|--------|--------|
--8--------------|-----11--10---------|--------|--------|--------|--------|
-----------------|--------------------|--------|--------|--------|--------|
-----------------|--------------------|--------|--------|--------|--------|


                      v                                                 
  Q     Q    Q        H.               H.               H.              
------------------|----------------|----------------|--11-------------||
-------11----L----|----------------|--11------------|--11-------------||
--8---------------|--12------------|--12------------|----------------*||
------------------|--13------------|----------------|----------------*||
------------------|----------------|----------------|-----------------||
------------------|----------------|----------------|-----------------||




Duration Legend
---------------
W - whole
H - half
Q - quarter
E - 8th
S - 16th
T - 32nd
X - 64th
. - note dotted
|-n-|  - n-tuplets


Tablature Legend
----------------
L - tied note
x - dead note
g - grace note
(n) - ghost note
> - accentuded note
NH - natural harmonic
AH - artificial harmonic
TH - tapped harmonic
SH - semi harmonic
PH - pitch harmonic
h - hammer on
p - pull off
b - bend
br - bendRelease
pb - preBend
pbr - preBendRelease
brb - bendReleaseBend
\n/ - tremolo bar dip
\n - tremolo bar dive
-/n - tremolo bar Release up
/n\ - tremolo bar inverted dip
/n - tremolo bar return
-\n - tremolo bar Release down
S - shift slide
s - legato slide
/ -  slide into from below or out of upwards
\ -  slide into from above or out of downwards
~ - vibrato
W - wide vibrato
tr - trill
TP - tremolo picking
T - tapping
S - slap
P - pop
< - fade in
^ - brush up
v - brush down

        
Comments

@Naen (July 19, 2012 at 2:33 AM)

i like it.