Gametabs
Home
Tabs
Random

Notice of Death

Average rating: 5.000

1 ratings

Composer:

Tabber:

Style:

Instrument:

Created: January 08, 2012 at 12:00 AM

            Notice of Death
Tactics Ogre 
Composers: Hitoshi Sakimoto and Masaharu Iwata
Tabbed by: iamHoustonian
Date Tabbed: 12/26/2011


Drop D tuning



Guitar I
Part I
e--------------------------------
B--------------------------------
G-------------------------------- X 8
D--------------------------------
A--5--5-5-5-5--5-----------------
D--0--0-0-0-0--0-----------------

Guitar I
Part II     Starts at :32
e--------------------------------------------------------------------------
B--------------------------------------------------------------------------
G-----------------------------5---------------------5----------------------
D------7------5--3--2-------------5----3--2--3--5-------5--3--3---2--------
A--0-------------------3--5------------------------------------------3--5--
D--------------------------------------------------------------------------




Guitar II
e--20----18--------20--18--17----\
B-------------------------------- \
G--------------------------------  \
D--------------------------------   \
A--------------------------------    \
D--------------------------------     \
                                       \   
                                         X 2
Guitar III   Play with Guitar II       /          
e--------------------------------     /
B--13----11--------13--11--10----    /
G--------------------------------   /
D--------------------------------  /
A-------------------------------- /
D--------------------------------/



Guitar IV    Starts at :25
e-------------------------------------
B----5-6-----5-6-----5-6-----5-6------
G--7-----5-7-----5-7-----5-7-----5----  X 6
D-------------------------------------
A-------------------------------------
D-------------------------------------



        
Comments

@Kenkiske (March 02, 2012 at 9:09 PM)

oh thanks, i love tactics