Gametabs
Home
Tabs
Random

Limitation

Average rating: 5.000

3 ratings

Composer:

Tabber:

Style:

Instrument:

Created: April 22, 2012 at 12:00 AM

            Limitation

Tactics Ogre: Let us Cling Together!
Composed by Hitoshi Sakimoto/Masaharu Iwata
Tabbed by Lemoncobbler
4/21/2012

Track 1

     Q    Q    Q    Q         S  S  S  S  S Q     
E||----------------------||----------------------|
B||----------------------||--------------12-L----|
G||----------------------||*-------13-11---------|
D||----------------------||*----11---------------|
A||----------------------||----------------------|
E||----------------------||----------------------|


  T T T T T T  E   E   S T T T T T T  E   E   S  
------------------------------------------------|
------------------------------------------------|
------------------------------------------------|
--9-9-9-9-9---11--11--11-9-9-9-9-9---11--11--11-|
------------------------------------------------|
------------------------------------------------|


  T T T T T T  E   E   S T T T T T T  E   E   S  
------------------------------------------------|
------------------------------------------------|
-------------------------9-9-9-9-9---11--11--11-|
--9-9-9-9-9---11--11--11------------------------|
------------------------------------------------|
------------------------------------------------|


  T T T T T T  E   E   S T T T T T T  E   E   S  
------------------------------------------------|
------------------------------------------------|
------------------------------------------------|
--9-9-9-9-9---11--11--11-9-9-9-9-9---11--11--11-|
------------------------------------------------|
------------------------------------------------|


  T T T T T T  E   E   S T T T T T T  E   E   S    E  E  S E  E  E  S S S E   
------------------------------------------------|----------------------------|
------------------------------------------------|----------------------------|
-------------------------9-9-9-9-9---11--11--11-|----------------------------|
--9-9-9-9-9---11--11--11------------------------|--4--6----------9--8-9-8----|
------------------------------------------------|--------4-6--7-----------9--|
------------------------------------------------|----------------------------|


  S E  S E  S E  S E  Q       E  E  S E  E  E  S S S E   
---------------------------|----------------------------|
---------7-----------------|----------------------------|
----8--6----9-8----6-------|----------------------------|
--6--------------9----6----|--4--6----------9--8-9-8----|
---------------------------|--------4-6--7-----------9--|
---------------------------|----------------------------|


  S E  S Q    Q    E  E     T T T T T T  E   E   S T T T T T T  E   E   S  
-------------------------|------------------------------------------------|
-------------------------|------------------------------------------------|
-------------------------|------------------------------------------------|
-------------------------|--9-9-9-9-9---11--11--11-9-9-9-9-9---11--11--11-|
--4-6--4-----------------|------------------------------------------------|
---------7----5----7--L--|------------------------------------------------|


  T T T T T T  E   E   S T T T T T T  E   E   S  
------------------------------------------------|
------------------------------------------------|
-------------------------9-9-9-9-9---11--11--11-|
--9-9-9-9-9---11--11--11------------------------|
------------------------------------------------|
------------------------------------------------|


  T T T T T T  E   E   S T T T T T T  E   E   S  
------------------------------------------------|
------------------------------------------------|
------------------------------------------------|
--9-9-9-9-9---11--11--11-9-9-9-9-9---11--11--11-|
------------------------------------------------|
------------------------------------------------|


  T T T T T T  E   E   S T T T T T T  E   E   S    E  E  S E  E  E  S S S E   
------------------------------------------------|----------------7--6-7-6----|
------------------------------------------------|--7--9-------------------7--|
-------------------------9-9-9-9-9---11--11--11-|--------6-8--9--------------|
--9-9-9-9-9---11--11--11------------------------|----------------------------|
------------------------------------------------|----------------------------|
------------------------------------------------|----------------------------|


   S  E   S  E   S  E   S E  Q        E   E   S  E   E   E   S  S  S  E   
-----11-----14--12-11-----9-------|--14--16-------------19--18-19-18-----|
---------14------------12----9----|----------14-16--17---------------19--|
--13------------------------------|--------------------------------------|
----------------------------------|--------------------------------------|
----------------------------------|--------------------------------------|
----------------------------------|--------------------------------------|


  S E  S E  S E  S E  Q        E   E.   S  T  T  S  E   E   E  E   
---------------------------|-----------------------------------9--|
----4----7--5--------------|------12------------12-11-------------|
--6----6------8----6-------|--13-------13-13-15--------11---------|
-----------------9----6----|-------------------------------11-----|
---------------------------|--------------------------------------|
---------------------------|--------------------------------------|


   Q    Q    Q     Q        Q     S E   S Q    S  E  S  
------------------------|----------------------------7-|
------------------------|-----------9--10-9----9-10----|
--------9----8----11----|--11----11--------------------|
--11--------------------|------------------------------|
------------------------|------------------------------|
------------------------|------------------------------|


   Q     Q     Q     Q        S  S  S  Q    H        S  
--------10----------12----|--14-14-14-12---------------|
--10----------12----------|----------------------------|
--------------------------|----------------------------|
--------------------------|----------------------------|
--------------------------|----------------------------|
--------------------------|----------------------------|


   S  S  S  E   Q    Q    E.      S  S  S  Q    H        S  
--12-12-12-10--17-------------|--14-14-14-12---------------|
------------------------------|----------------------------|
------------------------------|----------------------------|
------------------------------|----------------------------|
------------------------------|----------------------------|
------------------------------|----------------------------|


   S  S  S  E   E.   Q     Q       S  S  S  S  S Q    Q    E.                   
--12-12-12-10--17---17----19----|------------------------------|-------|-------|
--------------------------------|-------------12-L-------------|-------|-------|
--------------------------------|-------13-11------------------|-------|-------|
--------------------------------|----11------------------------|-------|-------|
--------------------------------|------------------------------|-------|-------|
--------------------------------|------------------------------|-------|-------|


                  Q    Q    E  E  S E  S    H        Q    Q     
-------|-------|-------------------------|---------------------|
-------|-------|-------------------------|--7--------9----7----|
-------|-------|-------------------------|---------------------|
-------|-------|------------------9-8--9-|---------------------|
-------|-------|---------------7---------|---------------------|
-------|-------|-------------------------|---------------------|


  Q    Q    E  S S S  E   S    Q    Q    Q    Q                             
----------------------------|----------------------|-------|-------|-------|
--7-------------------------|----------------------|-------|-------|-------|
----------------------------|----------------------|-------|-------|-------|
----------------------------|----------------------|-------|-------|-------|
-------------------9-11--12-|--9-------------------|-------|-------|-------|
----------------------------|----------------------|-------|-------|-------|


          E  E  E  S E  E  E  E  S    E   E  S T T S E  S E  S E.   
-------|---------------------------|-------------------------------|
-------|---------------------------|-------------------------------|
-------|---------------------------|-------------------------------|
-------|---------------------------|---------9-8-9-8------6----6---|
-------|-----6-----6-7-----9--7--6-|-----11----------9--9----9-----|
-------|--9------------------------|--9----------------------------|


  E  E  E  S E  E  E  E  S    Q    Q    Q    Q       Q    Q    Q    Q     
---------------------------|----------------------|----------------------|
---------------------------|----------------------|----------------------|
---------------------------|----------------------|----------------------|
---------------------------|------------4---------|----------------------|
-----6-----6-7-----9--7--6-|-----------------7----|--6-------------------|
--9------------------------|----------------------|----------------------|


  Q    Q    Q    Q       Q    Q    Q    Q                                     
----------------------|----------------------|-------|-------|-------|-------|
----------------------|----------------------|-------|-------|-------|-------|
----------------------|----------------------|-------|-------|-------|-------|
--7-------------------|--9---------6---------|-------|-------|-------|-------|
----------------------|-----------------5----|-------|-------|-------|-------|
----------------------|----------------------|-------|-------|-------|-------|


-------|-------|-------|-------|-------|-------|--------||-------|-------||
-------|-------|-------|-------|-------|-------|--------||-------|-------||
-------|-------|-------|-------|-------|-------|-------*||-------|-------||
-------|-------|-------|-------|-------|-------|-------*||-------|-------||
-------|-------|-------|-------|-------|-------|--------||-------|-------||
-------|-------|-------|-------|-------|-------|--------||-------|-------||



Track 2
               S S S S S  S  S  S  S E.  Q     
E||-------||----------------------------------|
B||-------||----------------------------------|
G||-------||*---------------------11-L---9----|
D||-------||*---------------13-11-------------|
A||-------||-------------11-------------------|
E||-------||----------------------------------|


  T T T T T T E  E  S T T T T T T E  E  S  
--7-7-7-7-7---9--9--9-7-7-7-7-7---9--9--9-|
------------------------------------------|
------------------------------------------|
------------------------------------------|
------------------------------------------|
------------------------------------------|


  T T T T T T E  E  S  T  T  T  T  T T  E   E   S  
--7-7-7-7-7---9--9--9-12-12-12-12-12---14--14--14-|
--------------------------------------------------|
--------------------------------------------------|
--------------------------------------------------|
--------------------------------------------------|
--------------------------------------------------|


  T T T T T T E  E  S T T T T T T E  E  S  
--7-7-7-7-7---9--9--9-7-7-7-7-7---9--9--9-|
------------------------------------------|
------------------------------------------|
------------------------------------------|
------------------------------------------|
------------------------------------------|


  T T T T T T E  E  S  T  T  T  T  T T  E   E   S  
--7-7-7-7-7---9--9--9-12-12-12-12-12---14--14--14-|
--------------------------------------------------|
--------------------------------------------------|
--------------------------------------------------|
--------------------------------------------------|
--------------------------------------------------|


   S  T  T  T T  S  T  T  T T  S  S  S  T  T  T T  S  T  T  T T  S  S  
--16------------16------------16----16------------16------------16----|
-----16-16-16------16-16-16------16----16-16-16------16-16-16------16-|
----------------------------------------------------------------------|
----------------------------------------------------------------------|
----------------------------------------------------------------------|
----------------------------------------------------------------------|


   S  T  T  T T  S  T  T  T T  S  S  S  T  T  T T  S  T  T  T T  S  S  
--16------------16------------16----16------------16------------16----|
-----16-16-16------16-16-16------16----16-16-16------16-16-16------16-|
----------------------------------------------------------------------|
----------------------------------------------------------------------|
----------------------------------------------------------------------|
----------------------------------------------------------------------|


   S  T  T  T T  S  T  T  T T  S  S  S  T  T  T T  S  T  T  T T  S  S  
--21------------21------------21----21------------21------------21----|
-----21-21-21------21-21-21------21----21-21-21------21-21-21------21-|
----------------------------------------------------------------------|
----------------------------------------------------------------------|
----------------------------------------------------------------------|
----------------------------------------------------------------------|


  Q    Q    Q    E  E     T T T T T T E  E  S T T T T T T E  E  S  
-----------------------|--7-7-7-7-7---9--9--9-7-7-7-7-7---9--9--9-|
-----------------------|------------------------------------------|
-----------------6--8--|------------------------------------------|
-----------------------|------------------------------------------|
-----------------------|------------------------------------------|
-----------------------|------------------------------------------|


  T T T T T T E  E  S  T  T  T  T  T T  E   E   S  
--7-7-7-7-7---9--9--9-12-12-12-12-12---14--14--14-|
--------------------------------------------------|
--------------------------------------------------|
--------------------------------------------------|
--------------------------------------------------|
--------------------------------------------------|


  T T T T T T E  E  S T T T T T T E  E  S  
--7-7-7-7-7---9--9--9-7-7-7-7-7---9--9--9-|
------------------------------------------|
------------------------------------------|
------------------------------------------|
------------------------------------------|
------------------------------------------|


  T T T T T T E  E  S  T  T  T  T  T T  E   E   S            
--7-7-7-7-7---9--9--9-12-12-12-12-12---14--14--14-|----|----|
--------------------------------------------------|----|----|
--------------------------------------------------|----|----|
--------------------------------------------------|----|----|
--------------------------------------------------|----|----|
--------------------------------------------------|----|----|


  E  E  S E  E  E  S S S E     S E  S E  S E  S E  Q                         
----------------------------|---------------------------|----|----|----|----|
----------------------------|---------------------------|----|----|----|----|
----------------------------|---------------------------|----|----|----|----|
--4--6----------9--8-9-8----|---------4-----------------|----|----|----|----|
--------4-6--7-----------9--|----6--4----7-6----4-------|----|----|----|----|
----------------------------|--4--------------7----4----|----|----|----|----|


  S S S Q    E  E  E  E.     S S S E  Q    Q.     S    S S S Q    Q    Q    S  
--------------------------|-------------------------|-------------------------|
--------------------------|-------------------------|-------------------------|
--------------------------|-------------------------|-------------------------|
--------------------------|-----------7-------------|-------------------------|
--9-9-9-7-----------------|--7-7-7-5----------------|--9-9-9-7----------------|
--------------------------|-------------------------|-------------------------|


  S S S E  E.  Q    Q       S S S S S  S  S  S  S E.  Q     
-------------------------|---------------------------------|
-------------------------|---------------------------------|
-------------------------|---------------------11-L---9----|
-----------7---7----9----|---------------13-11-------------|
--7-7-7-5----------------|------------11-------------------|
-------------------------|---------------------------------|


  Q    Q    E  E  S E  S    Q    Q    Q     Q       Q    Q    E  E  E  E   
-------------------------|-----------------------|------------------------|
-------------------------|--7--------------------|------------------------|
-------------------------|-------9----8----------|------------------------|
------------------9-8--9-|-----------------11----|------------------------|
---------------7---------|-----------------------|------------7--6--4-----|
-------------------------|-----------------------|--9------------------4--|


  E  T T E  E  S E  T T E  E  S    S S S S S S S S S S S S S S S S  
--------------------------------|----------------------------------|
--------------------------------|----------------------------------|
--------------------------------|----------------------------------|
--------------------------------|----------------------------------|
--------------------------------|--7-6-----7-6-----7-6-----7-6-----|
--5------7--7--7-5------7--7--7-|------7-4-----7-4-----7-4-----7-4-|


  S S S S S S S S S S S S S S S S    S S S S S S S S S S S S S S S S  
----------------------------------|----------------------------------|
----------------------------------|----------------------------------|
----------------------------------|----------------------------------|
----------------------------------|----------------------------------|
--7-6-----7-6-----7-6-----7-6-----|--9-7-6---9-7-6---9-7-6---9-7-6---|
------7-4-----7-4-----7-4-----7-4-|--------7-------7-------7-------7-|


  S S S S S S S S S S S S S S S S     E  E  E  E.  E  E  E  S  
----------------------------------|---------------------------|
----------------------------------|---------------------------|
----------------------------------|---------------------------|
--7-6-----7-6-----7-6-----7-6-----|---------------------------|
------9-------9-------9-------9---|-------------------------2-|
--------9-------9-------9-------9-|--11-----4------4--2--4----|


  S T T E  E  E  S S E  S S S S    E  E  E  E.  E  E  E  S  
--------------------------------|--------------------------|
--------------------------------|--------------------------|
--------------------------------|--------------------------|
--------------------------------|--------------------------|
-------------------4----4-------|--------------------------|
--------4--2---------5----4-5-7-|--4-----4------4--2--4--5-|


  Q    S E  S Q    Q       E  E  E  E.  E  E  E  S  
------------------------|--------------------------|
------------------------|--------------------------|
------------------------|--------------------------|
------------------------|--------------------------|
-------9-7--6-4---------|------------------------2-|
--7----------------7----|--4-----4------4--2--4----|


  S T T E  E  E  S S E  S S S S    Q    H        Q       Q    Q    Q    Q     
--------------------------------|---------------------|----------------------|
--------------------------------|---------------------|----------------------|
--------------------------------|---------------------|----------------------|
--------------------------------|---------------------|----------------------|
-------------------4----4-------|--4----2-------------|----------------------|
--------4--2---------5----4-5-7-|----------------5----|--2-------------------|


  Q    Q    Q    Q       Q    S E  S Q    Q       S E  S E  E  E  E  E  E   
----------------------|------------------------|------------------------5--|
----------------------|------------------------|---------------------7-----|
----------------------|--------------2---------|---------------5--8--------|
------------2----1----|--0----2-4--6------4----|---------------------------|
----------------------|------------------------|----6--4-------------------|
--4-------------------|------------------------|---------7-----------------|


  T T T T T T E  E  S T T T T T T E  E  S  
------------------------------------------|
------------------------------------------|
------------------------------------------|
--------------4--4--4---------------------|
--4-4-4-4-4-----------------------4--4--4-|
----------------------4-4-4-4-4-----------|


  T T T T T T E  E  S E  E  T T  S  S  S  
-----------------------------------------|
-----------------------------------------|
--------------------------------11-------|
--------------7--7--7-7--9---------14-13-|
--7-7-7-7-7------------------------------|
-----------------------------------------|


  T T T T T T E  E  S T T T T T T E  E  S  
------------------------------------------|
------------------------------------------|
------------------------------------------|
--------------4--4--4---------------------|
--4-4-4-4-4-----------------------4--4--4-|
----------------------4-4-4-4-4-----------|


  T T T T T T E  E  S E  E  T T  S  S  S  
-----------------------------------------|
-----------------------------------------|
--------------------------------11-------|
--------------7--7--7-7--9---------14-13-|
--7-7-7-7-7------------------------------|
-----------------------------------------|


  T T T T T T E  E  S T T T T T T E  E  S  
------------------------------------------|
------------------------------------------|
------------------------------------------|
--------------4--4--4---------------------|
--4-4-4-4-4-----------------------4--4--4-|
----------------------4-4-4-4-4-----------|


  T T T T T T E  E  S E  E  T T  S  S  S  
-----------------------------------------|
-----------------------------------------|
--------------------------------11-------|
--------------7--7--7-7--9---------14-13-|
--7-7-7-7-7------------------------------|
-----------------------------------------|


  T T T T T T E  E  S T T T T T T E  E  S  
------------------------------------------|
------------------------------------------|
------------------------------------------|
--------------4--4--4---------------------|
--4-4-4-4-4-----------------------4--4--4-|
----------------------4-4-4-4-4-----------|


  T T T T T T E  E  S E  E  T T  S  S  S    Q    Q    Q    Q     
-----------------------------------------|----------------------|
-----------------------------------------|----------------------|
--------------------------------11-------|-----------------4----|
--------------7--7--7-7--9---------14-13-|-------6----4---------|
--7-7-7-7-7------------------------------|--4-------------------|
-----------------------------------------|----------------------|


  Q    Q    Q     Q       W                                       
-----------------------|--------------------||-------------------|
-----------------12----|--L-----------------||-------------------|
-------9----6----------|-------------------*||-------------------|
--6--------------------|-------------------*||-------------------|
-----------------------|--------------------||-------------------|
-----------------------|--------------------||-------------------|


-------------------||
-------------------||
-------------------||
-------------------||
-------------------||
-------------------||





Track 3
     Q    Q    Q    Q          Q    Q    S  S  S  S  S  S  S  S  
E||----------------------||---21--------------------------------|
B||----------------------||-------------------------------------|
G||----------------------||*---------------------------------16-|
D||----------------------||*------------------------14----14----|
A||----------------------||-------------------14-12----14-------|
E||----------------------||----------------12-------------------|


  Q    Q    Q    Q       Q    Q    Q    Q        E     E  E  E  E  Q    Q     
----------------------|------------9----7----|--12--|--------------9----7----|
----------------------|----------------------|------|------------------------|
----------------------|----------------------|------|------------------------|
----------------------|----------------------|------|------------------------|
----------------------|----------------------|------|------------------------|
----------------------|----------------------|------|------------------------|


  E  E  S E  E  E  S S S E      S  E   S  E   S  E   S E  Q     
----------------7--6-7-6----|-----11-----14--12-11-----9-------|
--7--9-------------------7--|---------14------------12----9----|
--------6-8--9--------------|--13------------------------------|
----------------------------|----------------------------------|
----------------------------|----------------------------------|
----------------------------|----------------------------------|


  E  E  S E  E  E  S S S E     S E  S E  S E   S  E   Q     
----------------7--6-7-6----|--------------7-----12--14----|
--7--9-------------------7--|----4----7--5----10-----------|
--------6-8--9--------------|--6----6----------------------|
----------------------------|------------------------------|
----------------------------|------------------------------|
----------------------------|------------------------------|


  Q    Q    Q    Q       Q    Q    Q    Q        E     E  E  E  E  Q    Q     
----------------------|------------9----7----|--12--|--------------9----7----|
----------------------|----------------------|------|------------------------|
----------------------|----------------------|------|------------------------|
----------------------|----------------------|------|------------------------|
----------------------|----------------------|------|------------------------|
----------------------|----------------------|------|------------------------|


  E  E  E  E  E  E  E  E     E  E  E  E  E  E  E  E   
--------------------------|--------------------------|
--------------------------|--------------------------|
--------------------------|--------------------------|
--------------------------|--------------------------|
--------------------------|--------------------------|
--9--9--9--9--9--9--9--9--|--9--9--9--9--9--9--9--9--|


   E   E   E   E   E   E   E   E      E   E   E   E   E   E   E   E   
----------------------------------|----------------------------------|
----------------------------------|----------------------------------|
----------------------------------|----------------------------------|
--11--11--11--11--11--11--11--11--|--11--11--11--11--11--11--11--11--|
----------------------------------|----------------------------------|
----------------------------------|----------------------------------|


  E  E  E  E  E  E  E  E     E  E  E  E  E  E  E  E     Q    Q    Q    Q     
--------------------------|--------------------------|----------------------|
--------------------------|--------------------------|----------------------|
--------------------------|--------------------------|----------------------|
--------------------------|--------------------------|----------------------|
--------------------------|--------------------------|--5---------5---------|
--5--5--5--5--4--4--4--4--|--2--2--2--2--0--0--0--0--|----------------------|


  E  E  E  E  E  E  E  E     Q                       
--------------------------|-------|-----|-----|-----|
--------------------------|-------|-----|-----|-----|
--------------------------|-------|-----|-----|-----|
--------------------------|-------|-----|-----|-----|
--5--5--5--5--5--5--5--5--|--9----|-----|-----|-----|
--------------------------|-------|-----|-----|-----|


   Q    Q    S  S  S  S  S  S  S  S    E  E  S E  S E   Q.      
--21--------------------------------|--------7-6-------11------|
------------------------------------|-------------7-9----------|
---------------------------------16-|-----9--------------------|
------------------------14----14----|--------------------------|
------------------14-12----14-------|--------------------------|
---------------12-------------------|--------------------------|


  E.   T  T E  S  T  T  E.   E.   E     E  E   S  E   S S  E   S  S  E   S  
------11-12-9--L---------------------|--------------------16--14-14--------|
-----------------11-12-11------------|--------12-11-----9-----------17--16-|
----------------------------11-------|-----9---------11--------------------|
---------------------------------11--|-------------------------------------|
-------------------------------------|-------------------------------------|
-------------------------------------|-------------------------------------|


   T  T  T  T  S  E   E   S  T  T  T  T  S  E   E   S  
--12-12-12-12-12-14--14--14-17-17-17-17-17-19--19--19-|
------------------------------------------------------|
------------------------------------------------------|
------------------------------------------------------|
------------------------------------------------------|
------------------------------------------------------|


  E  E   S  E   S  E   Q.        E.   T  T E  S T T E.   T  T  E   E   
----------------------11------|------11-12-9--L-7-9-7-------------14--|
--------12-11-----------------|-------------------------11-12-11------|
-----9---------11-13----------|---------------------------------------|
------------------------------|---------------------------------------|
------------------------------|---------------------------------------|
------------------------------|---------------------------------------|


  Q     S  E   S  Q     S  E   S     Q     Q     Q     Q     
-------14-12---------------------|--------------14----17----|
--------------16-14----14-16--17-|--16----17----------------|
---------------------------------|--------------------------|
---------------------------------|--------------------------|
---------------------------------|--------------------------|
---------------------------------|--------------------------|


   E   E  E   S  E  E   E   E   S     E   E   S  T  T  S  E   S  E   S  E.   
------11-----11-12-----14--12--11-|------16--19-18-19-18--------16-----16---|
--14------------------------------|--14------------------19--19-----19------|
----------------------------------|-----------------------------------------|
----------------------------------|-----------------------------------------|
----------------------------------|-----------------------------------------|
----------------------------------|-----------------------------------------|


   E   E  E   S  E  E   E   E   S     E  E   E   E   Q     Q     
------11-----11-12-----14--12--11-|--11--9--11--12--17----23----|
--14------------------------------|-----------------------------|
----------------------------------|-----------------------------|
----------------------------------|-----------------------------|
----------------------------------|-----------------------------|
----------------------------------|-----------------------------|


   E   E  E   S  E  E   E   E   S     E   E   S  T  T  S  E   S  E   S  E.   
------11-----11-12-----14--12--11-|------16--19-18-19-18--------16-----16---|
--14------------------------------|--14------------------19--19-----19------|
----------------------------------|-----------------------------------------|
----------------------------------|-----------------------------------------|
----------------------------------|-----------------------------------------|
----------------------------------|-----------------------------------------|


   E   E  E   S  E  E   E   E   S    Q    Q     Q     Q     
------11-----11-12-----14--12--11-|--9----L----14----12----|
--14------------------------------|------------------------|
----------------------------------|------------------------|
----------------------------------|------------------------|
----------------------------------|------------------------|
----------------------------------|------------------------|


   Q    Q     Q     Q        S  T  T  E  Q     E   E   E   E   
--11----L----16----19----|--19-17-16-17-------------------14--|
-------------------------|--------------------14--12----------|
-------------------------|----------------------------14------|
-------------------------|------------------------------------|
-------------------------|------------------------------------|
-------------------------|------------------------------------|


   E  S S S  E  S E   E   E   E     T T T T T T E  E  S T T T T T T E  E  S  
--11------------7-8--11--14--17--|--------------9--9--9-------------9--9--9-|
----------9-10-------------------|--9-9-9-9-9-----------9-9-9-9-9-----------|
---------------------------------|------------------------------------------|
---------------------------------|------------------------------------------|
---------------------------------|------------------------------------------|
---------------------------------|------------------------------------------|


  T T T T T T E  E  S E   E.   S  S  S  
--------------9--9--9-9--16---14-------|
--9-9-9-9-9----------------------17-16-|
---------------------------------------|
---------------------------------------|
---------------------------------------|
---------------------------------------|


  T T T T T T E  E  S T T T T T T E  E  S  
--------------9--9--9-------------9--9--9-|
--9-9-9-9-9-----------9-9-9-9-9-----------|
------------------------------------------|
------------------------------------------|
------------------------------------------|
------------------------------------------|


  T T T T T T E  E  S E   E.   S  S  S  
--------------9--9--9-9--16---14-------|
--9-9-9-9-9----------------------17-16-|
---------------------------------------|
---------------------------------------|
---------------------------------------|
---------------------------------------|


  T T T T T T E  E  S T T T T T T E  E  S  
--------------9--9--9-------------9--9--9-|
--9-9-9-9-9-----------9-9-9-9-9-----------|
------------------------------------------|
------------------------------------------|
------------------------------------------|
------------------------------------------|


  T T T T T T E  E  S E   E.   S  S  S  
--------------9--9--9-9--16---14-------|
--9-9-9-9-9----------------------17-16-|
---------------------------------------|
---------------------------------------|
---------------------------------------|
---------------------------------------|


  T T T T T T E  E  S T T T T T T E  E  S  
--------------9--9--9-------------9--9--9-|
--9-9-9-9-9-----------9-9-9-9-9-----------|
------------------------------------------|
------------------------------------------|
------------------------------------------|
------------------------------------------|


  T T T T T T E  E  S E   E.   S  S  S    Q    Q    Q    Q     
--------------9--9--9-9--16---14-------|-----------------7----|
--9-9-9-9-9----------------------17-16-|-------9----7---------|
---------------------------------------|--6-------------------|
---------------------------------------|----------------------|
---------------------------------------|----------------------|
---------------------------------------|----------------------|


  Q     Q    Q     Q       W                                       
-------12----9----19----|--L-----------------||-------------------|
--9---------------------|--------------------||-------------------|
------------------------|-------------------*||-------------------|
------------------------|-------------------*||-------------------|
------------------------|--------------------||-------------------|
------------------------|--------------------||-------------------|


-------------------||
-------------------||
-------------------||
-------------------||
-------------------||
-------------------||


Duration Legend
---------------
W - whole
H - half
Q - quarter
E - 8th
S - 16th
T - 32nd
X - 64th
. - note dotted
|-n-|  - n-tuplets

        
Comments

@iamHoustonian (April 23, 2012 at 11:44 PM)

Damn good tab. You're the wizard of Ozma haha


@Kenkiske (September 12, 2013 at 9:34 PM)

Nice theme from Eden stage