Gametabs
Home
Tabs
Random

Lone Star

Average rating: No ratings

Composer:

Tabber:

Style:

Instrument:

Created: May 21, 2013 at 12:00 AM

            Title: Lone Star
Artist: Jim Guthrie
Album: Sword & Sworcery LP - The Ballad of the Space Babies
Tempo = 145

Legend
L - tied note
s - slide
> - accentuated note
v - brush up
^ - brush down

**********
melody
**********

E |----|----|----|----|----|----|----|--------------------7--9----|
B |----|----|----|----|----|----|----|----------------------------|
G |----|----|----|----|----|----|----|----------------------------|
D |----|----|----|----|----|----|----|----------------------------|
A |----|----|----|----|----|----|----|----------------------------|
E |----|----|----|----|----|----|----|----------------------------|


--10----9--7--------0-------|--0--2--------------7--9----|
--------------7--------3----|--------0--3--0-------------|
----------------------------|----------------------------|
----------------------------|----------------------------|
----------------------------|----------------------------|
----------------------------|----------------------------|


--10----9--7--------0-------|--6-----------------7--9----|
--------------7--------3----|--------------7-------------|
----------------------------|----------------------------|
----------------------------|----------------------------|
----------------------------|----------------------------|
----------------------------|----------------------------|


--10----9--7--------0-------|--0--2--------------7--9----|
--------------7--------3----|--------0--3--0-------------|
----------------------------|----------------------------|
----------------------------|----------------------------|
----------------------------|----------------------------|
----------------------------|----------------------------|


--10----9--7--------0-------|--6-----------------7--9----|
--------------7--------3----|----------------------------|
----------------------------|----------------------------|
----------------------------|----------------------------|
----------------------------|----------------------------|
----------------------------|----------------------------|


--10----9--7--------0-------|--0--2--------------7--9----|
--------------7--------3----|--------0--3--0-------------|
----------------------------|----------------------------|
----------------------------|----------------------------|
----------------------------|----------------------------|
----------------------------|----------------------------|


--10----9--7--------0-------|--6-----------------7--9----|
--------------7--------3----|--------------7-------------|
----------------------------|----------------------------|
----------------------------|----------------------------|
----------------------------|----------------------------|
----------------------------|----------------------------|


--10----9--7--------0-------|--0--2--------------7--9----|
--------------7--------3----|--------0--3--0-------------|
----------------------------|----------------------------|
----------------------------|----------------------------|
----------------------------|----------------------------|
----------------------------|----------------------------|


--10----9--7--------0-------|--6-----------------7--9----|
--------------7--------3----|--------------7-------------|
----------------------------|----------------------------|
----------------------------|----------------------------|
----------------------------|----------------------------|
----------------------------|----------------------------|


--10----9--7--------0-------|--0--2--------------7--9----|
--------------7--------3----|--------0--3--0-------------|
----------------------------|----------------------------|
----------------------------|----------------------------|
----------------------------|----------------------------|
----------------------------|----------------------------|


--10----9--7--------0-------|--6-----------------7--9----|
--------------7--------3----|--------------7-------------|
----------------------------|----------------------------|
----------------------------|----------------------------|
----------------------------|----------------------------|
----------------------------|----------------------------|


--10----9--7--------0-------|--0--2--------------7--9----|
--------------7--------3----|--------0--3--0-------------|
----------------------------|----------------------------|
----------------------------|----------------------------|
----------------------------|----------------------------|
----------------------------|----------------------------|


--10----9--7--------0-------|--6----|--7--9----|--7----|----|----|----|----|
--------------7--------3----|-------|----------|-------|----|----|----|----|
----------------------------|-------|----------|-------|----|----|----|----|
----------------------------|-------|----------|-------|----|----|----|----|
----------------------------|-------|----------|-------|----|----|----|----|
----------------------------|-------|----------|-------|----|----|----|----|


----|----|--------------------7--9----|--10----9--7--------0-------|
----|----|----------------------------|--------------7--------3----|
----|----|----------------------------|----------------------------|
----|----|----------------------------|----------------------------|
----|----|----------------------------|----------------------------|
----|----|----------------------------|----------------------------|


--0--2--------------7--9----|--10----9--7--------0-------|
--------0--3--0-------------|--------------7--------3----|
----------------------------|----------------------------|
----------------------------|----------------------------|
----------------------------|----------------------------|
----------------------------|----------------------------|


--6-----------------7--9----|--10----9--7--------0-------|
--------------7-------------|--------------7--------3----|
----------------------------|----------------------------|
----------------------------|----------------------------|
----------------------------|----------------------------|
----------------------------|----------------------------|


--0--2--------------7--9----|--10----9--7--------0-------|
--------0--3--0-------------|--------------7--------3----|
----------------------------|----------------------------|
----------------------------|----------------------------|
----------------------------|----------------------------|
----------------------------|----------------------------|


--6-----------------7--9----|-----------7L----------7L---|--7----|----|----|
--------------7-------------|--0--3--7-------------------|-------|----|----|
----------------------------|----------------------------|-------|----|----|
----------------------------|----------------------------|-------|----|----|
----------------------------|----------------------------|-------|----|----|
----------------------------|----------------------------|-------|----|----|


--7-------------------------|-------|----|----||----------7L----------7----|
-----7--3--0L----------0L---|--0----|----|----||-0--3--7-------------------|
----------------------------|-------|----|----||o--------------------------|
----------------------------|-------|----|----||o--------------------------|
----------------------------|-------|----|----||---------------------------|
----------------------------|-------|----|----||---------------------------|


--------0--5L----------5----|-----------3L----------3----|
-----2----------------------|-----0--3-------------------|
--2-------------------------|--0-------------------------|
----------------------------|----------------------------|
----------------------------|----------------------------|
----------------------------|----------------------------|


-----------2L----------2---|||----------7L----------7----|
--------2------------------|||-0--3--7-------------------|
-----3--------------------o|||o--------------------------|
--4-----------------------o|||o--------------------------|
---------------------------|||---------------------------|
---------------------------|||---------------------------|


--------0--5L----------5----|-----------3L----------3----|
-----2----------------------|-----0--3-------------------|
--2-------------------------|--0-------------------------|
----------------------------|----------------------------|
----------------------------|----------------------------|
----------------------------|----------------------------|


-----------2L----------2---||----|-----------2L----------2----|----|
--------2------------------||----|--------2-------------------|----|
-----3--------------------o||----|-----3----------------------|----|
--4-----------------------o||----|--4-------------------------|----|
---------------------------||----|----------------------------|----|
---------------------------||----|----------------------------|----|


-----------7L----------7L---|--7----|----|----|--7-------------------------|
--0--3--7-------------------|-------|----|----|-----7--3--0L----------0L---|
----------------------------|-------|----|----|----------------------------|
----------------------------|-------|----|----|----------------------------|
----------------------------|-------|----|----|----------------------------|
----------------------------|-------|----|----|----------------------------|


-------|----|----|-----------7L----------7----|----||
--0----|----|----|--0--3--7-------------------|----||
-------|----|----|----------------------------|----||
-------|----|----|----------------------------|----||
-------|----|----|----------------------------|----||
-------|----|----|----------------------------|----||

**********
bassline
**********

E |----------------------------|----------------------------|
B |----------------------------|----------------------------|
G |----------------------------|----------------------------|
D |-----------4----------------|-----------2----------------|
A |--2-------------------------|--0-------------------------|
D |----------------------------|----------------------------|

                                                                     
----------------------------|----------|----------------------------|
----------------------------|----------|----------------------------|
----------------------------|----------|-----------------------0----|
-----------0----------------|----------|-----------4--------4-------|
----------------------------|----------|--2-------------------------|
--5-------------------------|--4-------|----------------------------|

                                                     
----------------------------------------------------|
----------------------------------------------------|
----------------------------------------------------|
--------------------2-------------------------------|
--0-----------------------------5s-------0----------|
----------------------------------------------------|

                                                                     
----------------------------|----------|----------------------------|
----------------------------|----------|----------------------------|
----------------------------|----------|----------------------------|
-----------0----------------|----------|-----------4----------------|
----------------------------|-----4----|--2-------------------------|
--5-------------------------|--4-------|----------------------------|

                                                                     
----------------------------|----------------------------|----------|
----------------------------|----------------------------|----------|
----------------------------|----------------------------|----------|
-----------2----------------|-----------0----------------|----------|
--0-------------------------|----------------------------|----------|
----------------------------|--5-------------------------|--4-------|

                             
----------------------------|
----------------------------|
-----------------------0----|
-----------4--------4-------|
--2-------------------------|
----------------------------|

                                                     
----------------------------------------------------|
----------------------------------------------------|
----------------------------------------------------|
--------------------2-------------------------------|
--0-----------------------------5s-------0----------|
----------------------------------------------------|

                                                                     
----------------------------|----------|----------------------------|
----------------------------|----------|----------------------------|
----------------------------|----------|----------------------------|
-----------0----------------|----------|-----------4----------------|
----------------------------|-----4----|--2-------------------------|
--5-------------------------|--4-------|----------------------------|

                                                                     
----------------------------|----------------------------|----------|
----------------------------|----------------------------|----------|
----------------------------|----------------------------|----------|
-----------2----------------|-----------0----------------|----------|
--0-------------------------|----------------------------|----------|
----------------------------|--5-------------------------|--4-------|

                             
----------------------------|
----------------------------|
-----------------------0----|
-----------4--------4-------|
--2-------------------------|
----------------------------|

                                                     
----------------------------------------------------|
----------------------------------------------------|
----------------------------------------------------|
--------------------2-------------------------------|
--0-----------------------------5s-------0----------|
----------------------------------------------------|

                                                                         
----------------------------|----------|----------|----------|----------|
----------------------------|----------|----------|----------|----------|
----------------------------|----------|----------|----------|----------|
-----------0----------------|----------|----------|----------|----------|
----------------------------|-----4----|----------|----------|--2--2----|
--5-------------------------|--4-------|--0--0----|--2--2----|----------|

                                                                        
----------|----------|----------|----------|----------|----------------|
----------|----------|----------|----------|----------|----------------|
----------|----------|----------|----------|----------|----------------|
----------|----------|----------|----------|----------|----------------|
----------|----------|----------|--2--2----|----------|----------------|
--4--4----|--0--0----|--2--2----|----------|--4--4----|--4--4--4--4----|

                                                          
----------------------------|----------------------------|
----------------------------|----------------------------|
----------------------------|----------------------------|
-----------4----------------|-----------2----------------|
--2-------------------------|--0-------------------------|
----------------------------|----------------------------|

                                                                     
----------------------------|----------|----------------------------|
----------------------------|----------|----------------------------|
----------------------------|----------|-----------------------0----|
-----------0----------------|----------|-----------4--------4-------|
----------------------------|----------|--2-------------------------|
--5-------------------------|--4-------|----------------------------|

                                                     
----------------------------------------------------|
----------------------------------------------------|
----------------------------------------------------|
--------------------2-------------------------------|
--0-----------------------------5s-------0----------|
----------------------------------------------------|

                                                                     
----------------------------|----------|----------------------------|
----------------------------|----------|----------------------------|
----------------------------|----------|----------------------------|
-----------0----------------|----------|-----------4----------------|
----------------------------|-----4----|--2-------------------------|
--5-------------------------|--4-------|----------------------------|

                                                                     
----------------------------|----------------------------|----------|
----------------------------|----------------------------|----------|
----------------------------|----------------------------|----------|
-----------2----------------|-----------0----------------|----------|
--0-------------------------|----------------------------|----------|
----------------------------|--5-------------------------|--4-------|

                             
----------------------------|
----------------------------|
-----------------------0----|
-----------4--------4-------|
--2-------------------------|
----------------------------|

                                                     
----------------------------------------------------|
----------------------------------------------------|
----------------------------------------------------|
--------------------2-------------------------------|
--0-----------------------------5s-------0----------|
----------------------------------------------------|

                                          ^                      v          
----------------------------|----------|--2----|----|----|----|--2----|----|
----------------------------|----------|--4----|----|----|----|--4----|----|
----------------------------|----------|--4----|----|----|----|--4----|----|
-----------0----------------|----------|--4----|----|----|----|--4----|----|
----------------------------|-----4----|--2----|----|----|----|--2----|----|
--5-------------------------|--4-------|-------|----|----|----|-------|----|

                                                                    
----|----||---------------------------|----------------------------|
----|----||----------------------0----|-----------------------2----|
----|----||o--------------------------|----------------------------|
----|----||o--------------------------|----------------------------|
----|----||-2--2--2--2--2--2--2-------|--4--4--4--4--4--4--4-------|
----|----||---------------------------|----------------------------|
                                 >                            >
                                                           
----------------------------|-----------------------2---|||
-----------------------3----|---------------------------|||
----------------------------|--------------------------o|||
--0--0--0--0--0--0--0-------|--4--4--4--4--4--4--4-----o|||
----------------------------|---------------------------|||
----------------------------|---------------------------|||
                       >                            >
                                                         
---------------------------|----------------------------|
----0-----0-----0-----0----|-----2-----2-----2-----2----|
o--------------------------|----------------------------|
o--------------------------|----------------------------|
-2-----2-----2-----2-------|--4-----4-----4-----4-------|
---------------------------|----------------------------|

                                                          
----------------------------|-----2-----2-----2-----2---||
-----3-----3-----3-----3----|---------------------------||
----------------------------|--------------------------o||
--0-----0-----0-----0-------|--4-----4-----4-----4-----o||
----------------------------|---------------------------||
----------------------------|---------------------------||

                                                          
-----2-----2-----2-----2----|-----2-----2-----2-----2----|
----------------------------|----------------------------|
----------------------------|----------------------------|
--4-----4-----4-----4-------|--4-----4-----4-----4-------|
----------------------------|----------------------------|
----------------------------|----------------------------|

                               ^                         v
-----2-----2-----2-----2----|--2L---|--2----|----|----|--2L---|--2----|----|
----------------------------|--4L---|--4----|----|----|--4L---|--4----|----|
----------------------------|--4L---|--4----|----|----|--4L---|--4----|----|
--4-----4-----4-----4-------|--4L---|--4----|----|----|--4L---|--4----|----|
----------------------------|--2L---|--2----|----|----|--2L---|--2----|----|
----------------------------|-------|-------|----|----|-------|-------|----|


----|--2L---|--2----||
----|--4L---|--4----||
----|--4L---|--4----||
----|--4L---|--4----||
----|--2L---|--2----||
----|-------|-------||
        
Comments

No comments yet