Gametabs
Home
Tabs
Random

Ryu's Stage

Average rating: 5.000

1 ratings

Composer:

Tabber:

Style:

Instrument:

Created: January 22, 2009 at 12:00 AM

                                Street Fighter II - Ryu's Stage BASS TAB
                             Song by Yoko Shimomura

                     Tabbed by auriplane ([email protected])

When you repeat this song, you repeat from the very beginning, but you only
play Part A once instead of twice.

Five-string bass, standard tuning.  (Part C has three notes on the low B.  If
you're playing on a four string, you can do the first as a 1 on E, and skip
the other two.)

TUNING NOTE: I had to tune about all the strings about a tenth of a half-step 
flat to get it in tune with my Super Nintendo for this song.  I'm not sure if
all the versions of Street Fighter are flat like that.  If it sounds slightly
off, just tune to your SNES instead of to whatever you normally tune to.)

        Part A (Repeat 2x)

    G |----------------|----------------|----------------|------------3---|
    D |----------------|--4---3---------|----------------|--4---6---------|
    A |6---6-4-6---6-4-|6---------4-----|6---6-4-6---6-4-|6---------------|
    E |----------------|------------6---|----------------|----------------|
    B |----------------|----------------|----------------|----------------|
                                         
        Part B

    G |----------------|----------------|----------------|----------------|
    D |----------------|--4---3---------|----------------|--1---3-----4---|
    A |6---6-4-6---6-4-|6---------4-----|2---2-1-2---2-1-|2---------------|
    E |----------------|------------6---|----------------|----------------|
    B |----------------|----------------|----------------|----------------|

    G |----------------|------------1---|----------------|----------------|
    D |----------------|--3---4---4-----|----------------|------4---3-1---|
    A |4---4-2-4---4-2-|4---------------|----------------|--4-----------1-|
    E |----------------|----------------|2---2-1-2---2-1-|2---------------|
    B |----------------|----------------|----------------|----------------|

    G |----------------|----------------|----------------|----------------|
    D |----------------|--4---3---------|----------------|------------1---|
    A |2---2-1-2---2-1-|2---------4-1---|----------------|--2---4---------|
    E |----------------|----------------|4---4-2-4---4-2-|4---------------|
    B |----------------|----------------|----------------|----------------|

    G |----------------|----------------|----------------|----------------|
    D |----------------|--4---3---------|----------------|--4---3---------|
    A |----------------|----------4-----|----------------|--------6---4---|
    E |6---6-4-6---6-4-|6-----------6---|6-6-----6-------|----------------|
    B |----------------|----------------|----------------|----------------|

        Part C

    G |----------------|----------------|----------------|------------1---|
    D |----------------|--4---3---------|----------------|--3---4-------1-|
    A |2---2-1-2---2-1-|2---------4-2---|4---4-2-4---4-2-|4---------------|
    E |----------------|----------------|----------------|----------------|
    B |----------------|----------------|----------------|----------------|

    G |----------------|----------------|
    D |--1-----1---3-4-|3h4p3-1---------|
    A |----1-4---------|----------4-2-1-|
    E |----------------|----------------|
    B |----------------|----------------|

    G |----------------|----------------|----------------|----------------|
    D |----------------|--4---3---------|----------------|--3---4-----6---|
    A |2---2-1-2---2-1-|2---------4-2---|4---4-2-4---4-2-|4---------------|
    E |----------------|----------------|----------------|--------------6-|
    B |----------------|----------------|----------------|----------------|

    G |----------------|----------------|----------------|----------------|
    D |----------------|----------------|----------------|--------8h9p7---|
    A |----------------|----------------|----------------|----------------|
    E |--6---4-6---4-6-|4h6p4-2---1-----|4-4---6---4---6-|--------------6-|
    B |----6-----------|------------4-2-|----------------|----------------|

        Part D

    G |----------------|----------------|----------------|----------------|
    D |----------------|----4-6---------|----------------|----3-4---4h6---|
    A |6---6-4-6---6-4-|6-----------6---|4---4-2-4---4-2-|4-------------3-|
    E |----------------|----------------|----------------|----------------|
    B |----------------|----------------|----------------|----------------|

    G |----------------|------------1---|----------------|----------------|
    D |----------------|--3---4---------|----------------|--4---3---------|
    A |3---3-1-3---3-1-|3---------------|2---2-1-2---2-1-|1-------4---1---|
    E |----------------|----------------|----------------|----------------|
    B |----------------|----------------|----------------|----------------|

    G |----------------|----------------|----------------|----------------|
    D |----------------|----4-6---------|----------------|----3-4---4h6---|
    A |6---6-4-6---6-4-|6-----------6---|4---4-2-4---4-2-|4-------------3-|
    E |----------------|----------------|----------------|----------------|
    B |----------------|----------------|----------------|----------------|

    G |----------------|------------1---|----------------|----------------|
    D |----------------|--3---4---------|----------------|--4---3---------|
    A |3---3-1-3---3-1-|3---------------|2---2-1-1-----1-|--------4---1---|
    E |----------------|----------------|----------4-----|----------------|
    B |----------------|----------------|----------------|----------------|

        Part E

    G |----------------|----------------|----------------|----------------|
    D |1-----1---------|----------------|----------------|----3-4-6-4-3---|
    A |--4-------------|----------------|4-2---4---------|--4-----------4-|
    E |----------------|----------------|----------------|----------------|
    B |----------------|----------------|----------------|----------------|

        Repeat back to Part A.

        
Comments

No comments yet