Gametabs
Home
Tabs
Random

Kongo Jungle

Average rating: 3.500

4 ratings

Composer:

Tabber:

Style:

Instrument:

Created: January 13, 2012 at 12:00 AM

            Kongo Jungle                                             
Super Smash Bros
Hirokazu Ando
JordanVS


-4/4
-Tempo : 205 ~ 180


Sax
     W                   W                   W                   W                 
E||-------------------|-------------------|-------------------|-------------------|
B||-------------------|-------------------|-------------------|-------------------|
G||-------------------|-------------------|-------------------|-------------------|
D||-------------------|-------------------|-------------------|-------------------|
A||-------------------|-------------------|-------------------|-------------------|
E||-------------------|-------------------|-------------------|-------------------|


  W                   W                   W                   W                   W                 
-------------------|-------------------|-------------------|-------------------|-------------------|
-------------------|-------------------|-------------------|-------------------|-------------------|
-------------------|-------------------|-------------------|-------------------|-------------------|
-------------------|-------------------|-------------------|-------------------|-------------------|
-------------------|-------------------|-------------------|-------------------|-------------------|
-------------------|-------------------|-------------------|-------------------|-------------------|


  W                   W                   W                   W                   W                 
-------------------|-------------------|-------------------|-------------------|-------------------|
-------------------|-------------------|-------------------|-------------------|-------------------|
-------------------|-------------------|-------------------|-------------------|-------------------|
-------------------|-------------------|-------------------|-------------------|-------------------|
-------------------|-------------------|-------------------|-------------------|-------------------|
-------------------|-------------------|-------------------|-------------------|-------------------|


  W                   W                   W                   W                   W                 
-------------------|-------------------|-------------------|-------------------|-------------------|
-------------------|-------------------|-------------------|-------------------|-------------------|
-------------------|-------------------|-------------------|-------------------|-------------------|
-------------------|-------------------|-------------------|-------------------|-------------------|
-------------------|-------------------|-------------------|-------------------|-------------------|
-------------------|-------------------|-------------------|-------------------|-------------------|


  W                   W                   W                   W                   W                 
-------------------|-------------------|-------------------|-------------------|-------------------|
-------------------|-------------------|-------------------|-------------------|-------------------|
-------------------|-------------------|-------------------|-------------------|-------------------|
-------------------|-------------------|-------------------|-------------------|-------------------|
-------------------|-------------------|-------------------|-------------------|-------------------|
-------------------|-------------------|-------------------|-------------------|-------------------|


  W                   W                   W                   W                   W                 
-------------------|-------------------|-------------------|-------------------|-------------------|
-------------------|-------------------|-------------------|-------------------|-------------------|
-------------------|-------------------|-------------------|-------------------|-------------------|
-------------------|-------------------|-------------------|-------------------|-------------------|
-------------------|-------------------|-------------------|-------------------|-------------------|
-------------------|-------------------|-------------------|-------------------|-------------------|


  W                   W                   W                   W                   W                 
-------------------|-------------------|-------------------|-------------------|-------------------|
-------------------|-------------------|-------------------|-------------------|-------------------|
-------------------|-------------------|-------------------|-------------------|-------------------|
-------------------|-------------------|-------------------|-------------------|-------------------|
-------------------|-------------------|-------------------|-------------------|-------------------|
-------------------|-------------------|-------------------|-------------------|-------------------|


  W                   W                   W                   W                   W                 
-------------------|-------------------|-------------------|-------------------|-------------------|
-------------------|-------------------|-------------------|-------------------|-------------------|
-------------------|-------------------|-------------------|-------------------|-------------------|
-------------------|-------------------|-------------------|-------------------|-------------------|
-------------------|-------------------|-------------------|-------------------|-------------------|
-------------------|-------------------|-------------------|-------------------|-------------------|


  W                   W                   W                   W                   W                 
-------------------|-------------------|-------------------|-------------------|-------------------|
-------------------|-------------------|-------------------|-------------------|-------------------|
-------------------|-------------------|-------------------|-------------------|-------------------|
-------------------|-------------------|-------------------|-------------------|-------------------|
-------------------|-------------------|-------------------|-------------------|-------------------|
-------------------|-------------------|-------------------|-------------------|-------------------|


                                                |---3---|               |---3---|   |---3---|  
  W                   W                   Q     E   E   E   S  S  S  S  S   S   S   S   S   S  
-------------------|-------------------|-----------12--15--14-15-14-15-14h-15p-14h-15p-14h-15-|
-------------------|-------------------|-------13---------------------------------------------|
-------------------|-------------------|------------------------------------------------------|
-------------------|-------------------|------------------------------------------------------|
-------------------|-------------------|------------------------------------------------------|
-------------------|-------------------|------------------------------------------------------|


   E  E      E   Q     S   S E  E     Q    E  E  E  E  E  E     E  E  E  E  H         
--11-----11g12---------------------|-------------------------|-----------------------|
----------------13----12p-10-L-----|----------------5--------|-----------5-----------|
-----------------------------------|----------5--8-----------|--5--7--8--------------|
-----------------------------------|-------7--------------7--|-----------------------|
-----------------------------------|-------------------------|-----------------------|
-----------------------------------|-------------------------|-----------------------|


  Q    E  E  E  E  E  E     Q    H.              Q    E  E  E  E  E  E     E  E  E  E  H         
-------------------------|--------------------|-------------------------|-----------------------|
----------------5--------|--------------------|-------------------------|-----------------------|
----------5--8-----7--5--|--7-----------------|----------------7--------|-----------7-----------|
-------7-----------------|--------------------|-------6--7--9-----------|--6--7--9--------------|
-------------------------|--------------------|----------------------7--|-----------------------|
-------------------------|--------------------|-------------------------|-----------------------|


  E  E  E  E  E  E   E  E      W                   Q    E  E  E  E  E  E     E  E  E  E  H         
---------------------------|--------------------|-------------------------|-----------------------|
---------------------------|--------------------|----------------5--------|-----------5-----------|
--8--9--8--9--8--7---------|--------------------|----------5--8-----------|-----5--8--------------|
--------------------10--9--|--10----------------|-------7-----------------|--7--------------------|
---------------------------|--------------------|----------------------7--|-----------------------|
---------------------------|--------------------|-------------------------|-----------------------|


  Q    E.  S E.  S E.  S    E  E  H.              Q    E.  S E.  S Q       W                 
-------------------------|---------------------|------------------------|-------------------|
-----------------5-------|---------------------|------------------------|-------------------|
-----------5-8-----7---5-|--7------------------|-------------4---7------|-------------------|
-------7-----------------|---------------------|-------6---7------------|-------------------|
-------------------------|---------------------|------------------------|-------------------|
-------------------------|---------------------|------------------------|-------------------|


  Q    E.  S E.  S E.  S    E  E  H.              W                   W                 
-------------------------|---------------------|-------------------|-------------------|
-------------------------|---------------------|-------------------|-------------------|
-------------------------|---------------------|-------------------|-------------------|
-----------------4-5---6-|--7------------------|-------------------|-------------------|
-------6---7-8-----------|---------------------|-------------------|-------------------|
-------------------------|---------------------|-------------------|-------------------|


  H        Q     Q       Q     Q    Q    Q       W                   H        H         
----------------------|--7----10----8----7----|--8----------------|--L-----------------|
-----------9----10----|-----------------------|-------------------|--------------------|
----------------------|-----------------------|-------------------|--------------------|
----------------------|-----------------------|-------------------|--------------------|
----------------------|-----------------------|-------------------|--------------------|
----------------------|-----------------------|-------------------|--------------------|

T : 180

  W                   W                   W                   W                 
-------------------|-------------------|-------------------|-------------------|
-------------------|-------------------|-------------------|-------------------|
-------------------|-------------------|-------------------|-------------------|
-------------------|-------------------|-------------------|-------------------|
-------------------|-------------------|-------------------|-------------------|
-------------------|-------------------|-------------------|-------------------|


  Q.     S S  H           E  S S  H        E  S S     H        E  S S  Q       H        H         
---------8-9-10--------|--L--8-9-10--------L--8-9-|--10--------L--8-9-10----|--L-----------------|
-----------------------|--------------------------|-------------------------|--------------------|
-----------------------|--------------------------|-------------------------|--------------------|
-----------------------|--------------------------|-------------------------|--------------------|
-----------------------|--------------------------|-------------------------|--------------------|
-----------------------|--------------------------|-------------------------|--------------------|


  E  E  E  H        E     E   E   E   H        E     E  E  E  H        E     H.           Q     
-----------------------|-----15--17--18--------L--|-----------------------|--------------------|
-----------------------|--------------------------|-----------------------|--------------------|
-----------------------|--------------------------|-----------------------|--------------------|
-----5--7--8--------L--|--------------------------|-----5--7--8--------L--|--L-----------------|
-----------------------|--------------------------|-----------------------|--------------------|
-----------------------|--------------------------|-----------------------|--------------------|


  E  E  E  H        E     E  E  E  H        E     E  E  E  Q    E  E  E     E  E  E  Q    E  E  E   
-----------------------|-----5--6--------------|-------------------------|-------------------------|
-----------------------|-----------6-----------|-------------------------|-------------------------|
-----2--3--------------|-----------------------|-----2--3-------2--3-----|-----2--3-------2--3-----|
-----------3-----------|-----------------------|-----------3----------3--|--L--------3----------3--|
-----------------------|-----------------------|-------------------------|-------------------------|
-----------------------|-----------------------|-------------------------|-------------------------|


  H        H           W                    E   E   E   E  E   E   E   E   
--------------------|-------------------|--10---8--10--13-------------10--|
--------------------|-------------------|--11--10--11--15-----15--13--11--|
--------------------|-------------------|---------------------15--14------|
--L-----------------|-------------------|---------------------------------|
--------------------|-------------------|---------------------------------|
--------------------|-------------------|---------------------------------|


   E   E   E   E   E   E   E   E     W                   W                 
--13----------13----------10------|-------------------|-------------------|
--15--15--13--15--15--13--11--13--|-------------------|-------------------|
------15--14------15--14------14--|-------------------|-------------------|
----------------------------------|-------------------|-------------------|
----------------------------------|-------------------|-------------------|
----------------------------------|-------------------|-------------------|


   E   E   E   E  E   E   E   E      E   E   E   E   E   E   E   E     W                 
--10---8--10--13-------------10--|--13----------13----------10------|-------------------|
--11--10--11--15-----15--13--11--|--15--15--13--15--15--13--11--13--|-------------------|
---------------------15--14------|------15--14------15--14------14--|-------------------|
---------------------------------|----------------------------------|-------------------|
---------------------------------|----------------------------------|-------------------|
---------------------------------|----------------------------------|-------------------|


  W                    E   E   E   E  E   E   E   E      E   E   E   E   E   E   E   E   
-------------------|--10---8--10--13-------------10--|--13----------13----------10------|
-------------------|--11--10--11--15-----15--13--11--|--15--15--13--15--15--13--11--13--|
-------------------|---------------------15--14------|------15--14------15--14------14--|
-------------------|---------------------------------|----------------------------------|
-------------------|---------------------------------|----------------------------------|
-------------------|---------------------------------|----------------------------------|


  W                   W                    E   E   E   E  E   E   E   E   
-------------------|-------------------|--10---8--10--13-------------10--|
-------------------|-------------------|--11--10--11--15-----15--13--11--|
-------------------|-------------------|---------------------15--14------|
-------------------|-------------------|---------------------------------|
-------------------|-------------------|---------------------------------|
-------------------|-------------------|---------------------------------|


   E   E   E   E   E   E   E   E     W                   W                 
--13----------13----------10------|-------------------|-------------------|
--15--15--13--15--15--13--11--13--|-------------------|-------------------|
------15--14------15--14------14--|-------------------|-------------------|
----------------------------------|-------------------|-------------------|
----------------------------------|-------------------|-------------------|
----------------------------------|-------------------|-------------------|


   E   E   E   E  E   E   E   E      E   E   E   E   E   E   E   E     W                 
--10---8--10--13-------------10--|--13----------13----------10------|-------------------|
--11--10--11--15-----15--13--11--|--15--15--13--15--15--13--11--13--|-------------------|
---------------------15--14------|------15--14------15--14------14--|-------------------|
---------------------------------|----------------------------------|-------------------|
---------------------------------|----------------------------------|-------------------|
---------------------------------|----------------------------------|-------------------|


  W                    E   E   E   E  E   E   E   E      E   E   E   E   E   E   E   E           
-------------------|--10---8--10--13-------------10--|--13----------13----------10------|-------|
-------------------|--11--10--11--15-----15--13--11--|--15--15--13--15--15--13--11--13--|-------|
-------------------|---------------------15--14------|------15--14------15--14------14--|-------|
-------------------|---------------------------------|----------------------------------|-------|
-------------------|---------------------------------|----------------------------------|-------|
-------------------|---------------------------------|----------------------------------|-------|


  W                    E   E   E   E  E   E   E   E      E   E   E   E   E   E   E   E   
-------------------|--10---8--10--13-------------10--|--13----------13----------10------|
-------------------|--11--10--11--15-----15--13--11--|--15--15--13--15--15--13--11--13--|
-------------------|---------------------15--14------|------15--14------15--14------14--|
-------------------|---------------------------------|----------------------------------|
-------------------|---------------------------------|----------------------------------|
-------------------|---------------------------------|----------------------------------|


  W                   W                    E   E   E   E  E   E   E   E   
-------------------|-------------------|--10---8--10--13-------------10--|
-------------------|-------------------|--11--10--11--15-----15--13--11--|
-------------------|-------------------|---------------------15--14------|
-------------------|-------------------|---------------------------------|
-------------------|-------------------|---------------------------------|
-------------------|-------------------|---------------------------------|


   E   E   E   E   E   E   E   E    
--13----------13----------10------||
--15--15--13--15--15--13--11--13--||
------15--14------15--14------14--||
----------------------------------||
----------------------------------||
----------------------------------||



FX/Flute

E||-------|-------|-------|-------|-------|-------|-------|-------|-------|-------|-------|-------|
B||-------|-------|-------|-------|-------|-------|-------|-------|-------|-------|-------|-------|
G||-------|-------|-------|-------|-------|-------|-------|-------|-------|-------|-------|-------|
D||-------|-------|-------|-------|-------|-------|-------|-------|-------|-------|-------|-------|
A||-------|-------|-------|-------|-------|-------|-------|-------|-------|-------|-------|-------|
E||-------|-------|-------|-------|-------|-------|-------|-------|-------|-------|-------|-------|


-------|-------|-------|-------|-------|-------|-------|-------|-------|-------|-------|-------|
-------|-------|-------|-------|-------|-------|-------|-------|-------|-------|-------|-------|
-------|-------|-------|-------|-------|-------|-------|-------|-------|-------|-------|-------|
-------|-------|-------|-------|-------|-------|-------|-------|-------|-------|-------|-------|
-------|-------|-------|-------|-------|-------|-------|-------|-------|-------|-------|-------|
-------|-------|-------|-------|-------|-------|-------|-------|-------|-------|-------|-------|


  Q    Q    Q    Q       Q    Q    Q    Q       Q    Q    Q    Q       Q    Q    Q    Q     
--0---------0---------|--0---------0---------|--0---------0---------|--0---------0---------|
--1---------1---------|--1---------1---------|--1---------1---------|--1---------1---------|
--2---------2---------|--2---------2---------|--2---------2---------|--2---------2---------|
----------------------|----------------------|----------------------|----------------------|
----------------------|----------------------|----------------------|----------------------|
----------------------|----------------------|----------------------|----------------------|


  Q    Q    Q    Q       Q    Q    Q    Q       Q    Q    Q    Q       Q    Q    Q    Q     
----------------------|----------------------|----------------------|----------------------|
--3---------3---------|--3---------3---------|--3---------3---------|--3---------3---------|
--4---------4---------|--4---------4---------|--4---------4---------|--4---------4---------|
--5---------5---------|--5---------5---------|--2---------2---------|--2---------2---------|
----------------------|----------------------|----------------------|----------------------|
----------------------|----------------------|----------------------|----------------------|


  Q    Q    Q    Q       Q    Q    Q    Q       Q    Q    Q    Q       Q    Q    Q    Q     
--0---------0---------|--0---------0---------|--0---------0---------|--0---------0---------|
--1---------1---------|--1---------1---------|--1---------1---------|--1---------1---------|
--2---------2---------|--2---------2---------|--2---------2---------|--2---------2---------|
----------------------|----------------------|----------------------|----------------------|
----------------------|----------------------|----------------------|----------------------|
----------------------|----------------------|----------------------|----------------------|


  Q    Q    Q    Q       Q    Q    Q    Q       Q    Q    Q    Q       Q    Q    Q    Q             
----------------------|----------------------|----------------------|----------------------|-------|
--3---------3---------|--3---------3---------|--3---------3---------|--3---------3---------|-------|
--4---------4---------|--4---------4---------|--4---------4---------|--4---------4---------|-------|
--5---------5---------|--5---------5---------|--2---------2---------|--2---------2---------|-------|
----------------------|----------------------|----------------------|----------------------|-------|
----------------------|----------------------|----------------------|----------------------|-------|


                          Q    Q    Q    Q       Q    Q    Q    Q       Q    Q    Q    Q     
-------|-------|-------|--5----5----7----7----|--8----8----7----7----|--5----5----7----7----|
-------|-------|-------|----------------------|----------------------|----------------------|
-------|-------|-------|--2----2----4----4----|--5----5----4----4----|--2----2----4----4----|
-------|-------|-------|----------------------|----------------------|----------------------|
-------|-------|-------|----------------------|----------------------|----------------------|
-------|-------|-------|----------------------|----------------------|----------------------|


  Q    Q    Q    Q                                                             
--8----8----7----7----|-------|-------|-------|-------|-------|-------|-------|
----------------------|-------|-------|-------|-------|-------|-------|-------|
--5----5----4----4----|-------|-------|-------|-------|-------|-------|-------|
----------------------|-------|-------|-------|-------|-------|-------|-------|
----------------------|-------|-------|-------|-------|-------|-------|-------|
----------------------|-------|-------|-------|-------|-------|-------|-------|


  E  E  E  S T  Q    T  Q       E.  S Q    H                         
-----------------------------|----------------------|-------|-------|
-------------4h-5----4h-5----|--1-------------------|-------|-------|
-----------5-----------------|------2---------------|-------|-------|
--------7--------------------|----------------------|-------|-------|
-----7-----------------------|----------------------|-------|-------|
-----------------------------|----------------------|-------|-------|


  E.  S  E.   S  E.   S  E  E     H.            E.   S     E.   S  E.   S H                 
------6h-7---10p-7-------------|---------------14---15-|--16---19-16---------------|-------|
---------------------10p-9-----|-----------------------|---------------17----------|-------|
-------------------------------|-----------------------|---------------------------|-------|
-------------------------------|-----------------------|---------------------------|-------|
-------------------------------|-----------------------|---------------------------|-------|
-------------------------------|-----------------------|---------------------------|-------|


  Q.      T   T   T   T H                           W                   W                 
---------12s-14s-16s-17----------|-------|-------|-------------------|-------------------|
---------------------------------|-------|-------|--3----------------|--L----------------|
----------9s-11s-12s-14----------|-------|-------|--4----------------|--L----------------|
---------------------------------|-------|-------|--0----------------|--L----------------|
---------------------------------|-------|-------|--2----------------|--L----------------|
---------------------------------|-------|-------|-------------------|-------------------|


  W                   W                                                                         
--0----------------|--L----------------|-------|-------|-------|-------|-------|-------|-------|
--1----------------|--L----------------|-------|-------|-------|-------|-------|-------|-------|
--2----------------|--L----------------|-------|-------|-------|-------|-------|-------|-------|
--2----------------|--L----------------|-------|-------|-------|-------|-------|-------|-------|
--0----------------|--L----------------|-------|-------|-------|-------|-------|-------|-------|
-------------------|-------------------|-------|-------|-------|-------|-------|-------|-------|


                                                                                  W                 
-------|-------|-------|-------|-------|-------|-------|-------|-------|-------|-------------------|
-------|-------|-------|-------|-------|-------|-------|-------|-------|-------|-------------------|
-------|-------|-------|-------|-------|-------|-------|-------|-------|-------|-------------------|
-------|-------|-------|-------|-------|-------|-------|-------|-------|-------|-------------------|
-------|-------|-------|-------|-------|-------|-------|-------|-------|-------|-------------------|
-------|-------|-------|-------|-------|-------|-------|-------|-------|-------|-------------------|


  E  E  E  E  E  E  E  E     E  E  E  E  E  E  E  E     W                   W                 
-----------1--------------|--1--------1--------------|-------------------|-------------------|
--3--1--3--3-----3--1--3--|--3--3--1--3--3--1--3--1--|-------------------|-------------------|
--3--2--3--------3--2--3--|-----3--2-----3--2--3--2--|-------------------|-------------------|
--------------------------|--------------------------|-------------------|-------------------|
--------------------------|--------------------------|-------------------|-------------------|
--------------------------|--------------------------|-------------------|-------------------|


  E  E  E  E  E  E  E  E     E  E  E  E  E  E  E  E     W                   W                 
-----------1--------------|--1--------1--------------|-------------------|-------------------|
--3--1--3--3-----3--1--3--|--3--3--1--3--3--1--3--1--|-------------------|-------------------|
--3--2--3--------3--2--3--|-----3--2-----3--2--3--2--|-------------------|-------------------|
--------------------------|--------------------------|-------------------|-------------------|
--------------------------|--------------------------|-------------------|-------------------|
--------------------------|--------------------------|-------------------|-------------------|


  E  E  E  E  E  E  E  E     E  E  E  E  E  E  E  E     W                   W                 
-----------1--------------|--1--------1--------------|-------------------|-------------------|
--3--1--3--3-----3--1--3--|--3--3--1--3--3--1--3--1--|-------------------|-------------------|
--3--2--3--------3--2--3--|-----3--2-----3--2--3--2--|-------------------|-------------------|
--------------------------|--------------------------|-------------------|-------------------|
--------------------------|--------------------------|-------------------|-------------------|
--------------------------|--------------------------|-------------------|-------------------|


  E  E  E  E  E  E  E  E     E  E  E  E  E  E  E  E     W                   W                 
-----------1--------------|--1--------1--------------|-------------------|-------------------|
--3--1--3--3-----3--1--3--|--3--3--1--3--3--1--3--1--|-------------------|-------------------|
--3--2--3--------3--2--3--|-----3--2-----3--2--3--2--|-------------------|-------------------|
--------------------------|--------------------------|-------------------|-------------------|
--------------------------|--------------------------|-------------------|-------------------|
--------------------------|--------------------------|-------------------|-------------------|


  E  E  E  E  E  E  E  E     E  E  E  E  E  E  E  E     W                   W                 
-----------1--------------|--1--------1--------------|-------------------|-------------------|
--3--1--3--3-----3--1--3--|--3--3--1--3--3--1--3--1--|-------------------|-------------------|
--3--2--3--------3--2--3--|-----3--2-----3--2--3--2--|-------------------|-------------------|
--------------------------|--------------------------|-------------------|-------------------|
--------------------------|--------------------------|-------------------|-------------------|
--------------------------|--------------------------|-------------------|-------------------|


  E  E  E  E  E  E  E  E     E  E  E  E  E  E  E  E             W                 
-----------1--------------|--1--------1--------------|-------|-------------------|
--3--1--3--3-----3--1--3--|--3--3--1--3--3--1--3--1--|-------|-------------------|
--3--2--3--------3--2--3--|-----3--2-----3--2--3--2--|-------|-------------------|
--------------------------|--------------------------|-------|-------------------|
--------------------------|--------------------------|-------|-------------------|
--------------------------|--------------------------|-------|-------------------|


  E  E  E  E  E  E  E  E     E  E  E  E  E  E  E  E     W                   W                 
-----------1--------------|--1--------1--------------|-------------------|-------------------|
--3--1--3--3-----3--1--3--|--3--3--1--3--3--1--3--1--|-------------------|-------------------|
--3--2--3--------3--2--3--|-----3--2-----3--2--3--2--|-------------------|-------------------|
--------------------------|--------------------------|-------------------|-------------------|
--------------------------|--------------------------|-------------------|-------------------|
--------------------------|--------------------------|-------------------|-------------------|


  E  E  E  E  E  E  E  E     E  E  E  E  E  E  E  E    
-----------1--------------|--1--------1--------------||
--3--1--3--3-----3--1--3--|--3--3--1--3--3--1--3--1--||
--3--2--3--------3--2--3--|-----3--2-----3--2--3--2--||
--------------------------|--------------------------||
--------------------------|--------------------------||
--------------------------|--------------------------||



Bass

G||-------------------|-------------------|-------------------|-------------------|
D||-------------------|-------------------|-------------------|-------------------|
A||-------------------|-------------------|-------------------|-------------------|
E||-------------------|-------------------|-------------------|-------------------|


-------------------|-------------------|-------------------|-------------------|-------------------|
-------------------|-------------------|-------------------|-------------------|-------------------|
-------------------|-------------------|-------------------|-------------------|-------------------|
-------------------|-------------------|-------------------|-------------------|-------------------|


-------------------|-------------------|-------------------|-------------------|-------------------|
-------------------|-------------------|-------------------|-------------------|-------------------|
-------------------|-------------------|-------------------|-------------------|-------------------|
-------------------|-------------------|-------------------|-------------------|-------------------|


-------------------|-------------------|-------------------|-------------------|-------------------|
-------------------|-------------------|-------------------|-------------------|-------------------|
-------------------|-------------------|-------------------|-------------------|-------------------|
-------------------|-------------------|-------------------|-------------------|-------------------|


                      H        H                               H        H         
-------------------|--------------------|-------------------|--------------------|
-------------------|--------------------|-------------------|--------------------|
-------------------|--0--------0--------|-------------------|--0--------0--------|
-------------------|--------------------|-------------------|--------------------|


  H        Q    Q       H        H                               H        H         
---------------------|--------------------|-------------------|--------------------|
---------------------|--------------------|-------------------|--------------------|
----------------2----|--0--------0--------|-------------------|--0--------0--------|
-----------3---------|--------------------|-------------------|--------------------|


                      H        H                               H        H         
-------------------|--------------------|-------------------|--------------------|
-------------------|--------------------|-------------------|--------------------|
-------------------|--------------------|-------------------|--------------------|
-------------------|--3--------3--------|-------------------|--3--------3--------|


                      H        H                               H        H         
-------------------|--------------------|-------------------|--------------------|
-------------------|--------------------|-------------------|--------------------|
-------------------|--0--------0--------|-------------------|--0--------0--------|
-------------------|--------------------|-------------------|--------------------|


                      Q    Q    Q    Q       Q    Q    Q    Q       Q    Q    Q    Q     
-------------------|----------------------|----------------------|----------------------|
-------------------|-------0--------------|----------------------|-------0--------------|
-------------------|------------3----0----|--2----0---------2----|------------3----0----|
-------------------|--3-------------------|------------3---------|--3-------------------|


  Q    Q    Q    Q       Q    Q    Q    Q       Q    E  Q    E  Q       Q    Q    Q    Q     
----------------------|----------------------|-----------------------|----------------------|
----------------------|----------------------|-----------------------|----------------------|
--2----0---------2----|--0----0--------------|-----------------------|--0----0--------------|
------------3---------|------------0----0----|--1----1--3----1--4----|------------0----0----|


  Q    E  Q    E  Q       Q    Q    Q    Q       Q    E  Q    E  Q       Q    Q    Q    Q     
-----------------------|----------------------|-----------------------|----------------------|
-----------------------|----------------------|-----------------------|----------------------|
-------3--2----0-------|--0----0--------------|-----------------------|--0----0--------------|
--1---------------3----|------------0----0----|--1----1--3----1--4----|------------0----0----|


  Q    E  Q    E  Q       Q    Q    Q    Q       Q    E  Q    E  Q       Q    Q    Q    Q     
-----------------------|----------------------|-----------------------|----------------------|
-----------------------|----------------------|-----------------------|----------------------|
-------3--2----0-------|--0----0--------------|--0----0---------------|--0----0---------0----|
--1---------------4----|------------0----0----|----------0----0--4----|------------0---------|


  Q    E  Q    E  Q       Q    Q    Q    Q       Q    E  Q    E  Q       Q    Q    Q    Q     
-----------------------|----------------------|-----------------------|----------------------|
-----------------------|----------------------|-----------------------|----------------------|
----------0----0--2----|------------0----2----|----------0----0--2----|------------0----2----|
--0----4---------------|--0----4--------------|--0----4---------------|--0----4--------------|


  Q    E  Q    E  Q       Q    Q    Q    Q       Q    E  Q    E  Q       Q    Q    Q    Q     
-----------------------|----------------------|-----------------------|----------------------|
-----------------------|----------------------|-----------------------|----------------------|
--0----3--2----0-------|--0----0--------------|--0----0---------------|--0----0---------0----|
------------------3----|------------0----0----|----------0----0--4----|------------0---------|


  Q    E  Q    E  Q       Q    Q    Q    Q       Q    E  Q    E  Q       Q    Q    Q    Q     
-----------------------|----------------------|-----------------------|----------------------|
-----------------------|----------------------|-----------------------|----------------------|
----------0----0--2----|------------0----2----|----------0----0--2----|------------0----2----|
--0----4---------------|--0----4--------------|--0----4---------------|--0----4--------------|


  Q    E  E  Q.     E                                                               
-----------------------|-------------------|-------------------|-------------------|
-----------------------|-------------------|-------------------|-------------------|
--0----3--2--0---------|-------------------|-------------------|-------------------|
-----------------------|-------------------|-------------------|-------------------|

					   		      T : 180
  Q    Q    Q    Q       W                                                         
----------------------|-------------------|-------------------|-------------------|
----------------------|-------------------|-------------------|-------------------|
----------------------|--0----------------|-------------------|-------------------|
--0----1----3----4----|-------------------|-------------------|-------------------|


-------------------|-------------------|-------------------|-------------------|-------------------|
-------------------|-------------------|-------------------|-------------------|-------------------|
-------------------|-------------------|-------------------|-------------------|-------------------|
-------------------|-------------------|-------------------|-------------------|-------------------|


                                          W                   H         H         
-------------------|-------------------|--7----------------|--9------------------|
-------------------|-------------------|-------------------|-----------10--------|
-------------------|-------------------|-------------------|---------------------|
-------------------|-------------------|-------------------|---------------------|


  W                   W                   W                   H         H         
--7----------------|--L----------------|--7----------------|--9------------------|
-------------------|-------------------|-------------------|-----------10--------|
-------------------|-------------------|-------------------|---------------------|
-------------------|-------------------|-------------------|---------------------|


  W                   W                   W                   H         H         
--7----------------|--L----------------|--7----------------|--9------------------|
-------------------|-------------------|-------------------|-----------10--------|
-------------------|-------------------|-------------------|---------------------|
-------------------|-------------------|-------------------|---------------------|


  W                   W                   W                   H         H         
--7----------------|--L----------------|--7----------------|--9------------------|
-------------------|-------------------|-------------------|-----------10--------|
-------------------|-------------------|-------------------|---------------------|
-------------------|-------------------|-------------------|---------------------|


  W                   W                   W                    W                 
--7----------------|--L----------------|-------------------|--12----------------|
-------------------|-------------------|--8----------------|--------------------|
-------------------|-------------------|-------------------|--------------------|
-------------------|-------------------|-------------------|--------------------|


   W                   W                   W                    W                 
--------------------|-------------------|-------------------|--12----------------|
--12----------------|--L----------------|--8----------------|--------------------|
--------------------|-------------------|-------------------|--------------------|
--------------------|-------------------|-------------------|--------------------|


   W                   W                   W                   W                 
--------------------|-------------------|-------------------|-------------------|
--12----------------|--L----------------|--L----------------|--L----------------|
--------------------|-------------------|-------------------|-------------------|
--------------------|-------------------|-------------------|-------------------|


  W                   W                   W                   W                   W                 
-------------------|-------------------|-------------------|-------------------|-------------------|
--L----------------|--L----------------|--L----------------|--L----------------|--L----------------|
-------------------|-------------------|-------------------|-------------------|-------------------|
-------------------|-------------------|-------------------|-------------------|-------------------|


  W                                                                                                 
-------------------|-------------------|-------------------|-------------------|-------------------|
--L----------------|-------------------|-------------------|-------------------|-------------------|
-------------------|-------------------|-------------------|-------------------|-------------------|
-------------------|-------------------|-------------------|-------------------|-------------------|


-------------------|-------------------|-------------------|-------------------||
-------------------|-------------------|-------------------|-------------------||
-------------------|-------------------|-------------------|-------------------||
-------------------|-------------------|-------------------|-------------------||

Wood/Xilo/Tuba

E||-------|-------|-------|-------|-------|-------|-------|-------|-------|-------|-------|-------|
B||-------|-------|-------|-------|-------|-------|-------|-------|-------|-------|-------|-------|
G||-------|-------|-------|-------|-------|-------|-------|-------|-------|-------|-------|-------|
D||-------|-------|-------|-------|-------|-------|-------|-------|-------|-------|-------|-------|
A||-------|-------|-------|-------|-------|-------|-------|-------|-------|-------|-------|-------|
E||-------|-------|-------|-------|-------|-------|-------|-------|-------|-------|-------|-------|


                                           |-3-| |-3-|                           
  E  Q    E  Q    E  E     E  Q    E  Q    S S S S S S    E  Q    E  Q    E  E   
------------------------|------------------1-1-1-1-1-1-|------------------------|
------------------------|------------------------------|------------------------|
------------------------|------------------------------|------------------------|
--3--3----3--3----3--3--|--L--3----3--3----------------|--3--3----3--3----3--3--|
------------------------|------------------------------|------------------------|
------------------------|------------------------------|------------------------|


                  |-3-| |-3-|                                             |-3-| |-3-|  
  E  Q    E  Q    S S S S S S    E  Q    E  Q    E  E     E  Q    E  Q    S S S S S S  
------------------1-1-1-1-1-1-|------------------------|------------------1-1-1-1-1-1-|
------------------------------|------------------------|------------------------------|
------------------------------|------------------------|------------------------------|
--L--3----3--3----------------|--3--3----3--3----3--3--|--L--3----3--3----------------|
------------------------------|------------------------|------------------------------|
------------------------------|------------------------|------------------------------|


                                           |-3-| |-3-|                           
  E  Q    E  Q    E  E     E  Q    E  Q    S S S S S S    E  Q    E  Q    E  E   
------------------------|------------------1-1-1-1-1-1-|------------------------|
------------------------|------------------------------|------------------------|
------------------------|------------------------------|------------------------|
--3--3----3--3----3--3--|--L--3----3--3----------------|--3--3----3--3----3--3--|
------------------------|------------------------------|------------------------|
------------------------|------------------------------|------------------------|


                  |-3-| |-3-|                                             |-3-| |-3-|  
  E  Q    E  Q    S S S S S S    E  Q    E  Q    E  E     E  Q    E  Q    S S S S S S  
------------------1-1-1-1-1-1-|------------------------|------------------1-1-1-1-1-1-|
------------------------------|------------------------|------------------------------|
------------------------------|------------------------|------------------------------|
--L--3----3--3----------------|--3--3----3--3----3--3--|--L--3----3--3----------------|
------------------------------|------------------------|------------------------------|
------------------------------|------------------------|------------------------------|


                                           |-3-| |-3-|                           
  E  Q    E  Q    E  E     E  Q    E  Q    S S S S S S    E  Q    E  Q    E  E   
------------------------|------------------1-1-1-1-1-1-|------------------------|
------------------------|------------------------------|------------------------|
------------------------|------------------------------|------------------------|
--3--3----3--3----3--3--|--L--3----3--3----------------|--3--3----3--3----3--3--|
------------------------|------------------------------|------------------------|
------------------------|------------------------------|------------------------|


                  |-3-| |-3-|                                             |-3-| |-3-|  
  E  Q    E  Q    S S S S S S    E  Q    E  Q    E  E     E  Q    E  Q    S S S S S S  
------------------1-1-1-1-1-1-|------------------------|------------------1-1-1-1-1-1-|
------------------------------|------------------------|------------------------------|
------------------------------|------------------------|------------------------------|
--L--3----3--3----------------|--3--3----3--3----3--3--|--L--3----3--3----------------|
------------------------------|------------------------|------------------------------|
------------------------------|------------------------|------------------------------|


                                           |-3-| |-3-|                           
  E  Q    E  Q    E  E     E  Q    E  Q    S S S S S S    E  Q    E  Q    E  E   
------------------------|------------------1-1-1-1-1-1-|------------------------|
------------------------|------------------------------|------------------------|
------------------------|------------------------------|------------------------|
--3--3----3--3----3--3--|--L--3----3--3----------------|--3--3----3--3----3--3--|
------------------------|------------------------------|------------------------|
------------------------|------------------------------|------------------------|


                  |-3-| |-3-|                                             |-3-| |-3-|  
  E  Q    E  Q    S S S S S S    E  Q    E  Q    E  E     E  Q    E  Q    S S S S S S  
------------------1-1-1-1-1-1-|------------------------|------------------1-1-1-1-1-1-|
------------------------------|------------------------|------------------------------|
------------------------------|------------------------|------------------------------|
--L--3----3--3----------------|--3--3----3--3----3--3--|--L--3----3--3----------------|
------------------------------|------------------------|------------------------------|
------------------------------|------------------------|------------------------------|


                                           |-3-| |-3-|                           
  E  Q    E  Q    E  E     E  Q    E  Q    S S S S S S    E  Q    E  Q    E  E   
------------------------|------------------1-1-1-1-1-1-|------------------------|
------------------------|------------------------------|------------------------|
------------------------|------------------------------|------------------------|
--3--3----3--3----3--3--|--L--3----3--3----------------|--3--3----3--3----3--3--|
------------------------|------------------------------|------------------------|
------------------------|------------------------------|------------------------|


  E  Q    E  Q    Q       W                   W                   W                 
-----------------------|-------------------|-------------------|-------------------|
-----------------------|-------------------|-------------------|-------------------|
-----------------------|-------------------|-------------------|-------------------|
--L--3----3--3---------|-------------------|-------------------|-------------------|
-----------------------|-------------------|-------------------|-------------------|
-----------------------|-------------------|-------------------|-------------------|


  W                   Q    Q    Q    Q       Q    Q    Q    Q       Q    Q    Q    Q     
-------------------|--5----5----7----7----|--8----8----7----7----|--5----5----7----7----|
-------------------|----------------------|----------------------|----------------------|
-------------------|--2----2----4----4----|--5----5----4----4----|--2----2----4----4----|
-------------------|----------------------|----------------------|----------------------|
-------------------|----------------------|----------------------|----------------------|
-------------------|----------------------|----------------------|----------------------|


  Q    Q    Q    Q       W                   W