Gametabs
Home
Tabs
Random

Main Theme (E3 ver.)

Average rating: 5.000

3 ratings

Tabber:

Style:

Instrument:

Created: September 02, 2018 at 12:00 AM

            Main Theme (E3 ver.)
Super Smash Bros. Ultimate
Composition Supervisor: Hideki Sakamoto
Composition: noisycroak Co., Ltd.
Tabbed by OtterKing
9/2/2018

Standard Tuning

E|-----------------------
B|--------------------3--
G|--------0--------0-----
D|--2--4--------2--------
A|-----------------------
E|-----------------------

E|-----------------------------------------------
B|--2--0--2-----------------1--0--------------0--
G|-----------2--------------------2-----0--2-----
D|-----------------------------------------------
A|-----------------------------------------------
E|-----------------------------------------------

E|--------------------------0-----------------------
B|-----------------------3--------------------------
G|--2-----0--2--------2-----------------------------
D|--------------4-----------------------------------
A|--------------------------------------------------
E|--------------------------------------------------

E|-----------------------------------------------
B|-------------------------- -----0--------------
G|--0--2-----------------0-----2-----2-----------
D|--------4--------2--4--------------------------
A|-----------------------------------------------
E|-----------------------------------------------

E|-----------------------------------------
B|-----------------------------------------
G|--0--2-----------------------------------
D|--------4--2--0--2-----------4-----------
A|-----------------------0-----------------
E|-----------------------------------------

E|-----------------------------------------------
B|-------------------------- -----0--------------
G|--0--2-----------------0-----2-----2-----------
D|--------4--------2--4--------------------------
A|-----------------------------------------------
E|-----------------------------------------------

E|-----------------------------
B|-----------------------------
G|--0--2-----------------------
D|--------4--2--0--2-----------
A|-----------------------0-----
E|-----------------------------

E|-----------------------------------
B|-----------------------0-----------
G|--------0--2-----2-----------------
D|--2--4-----------2-----------------
A|-----------------------------------
E|-----------------------------------

E|-----------------------------------------------
B|-------------------------- -----0--------------
G|--0--2-----------------0-----2-----2-----------
D|--------4--------2--4--------------------------
A|-----------------------------------------------
E|-----------------------------------------------

E|-----------------------------------------
B|-----------------------------------------
G|--0--2-----------------------------------
D|--------4--2--0--2-----------4-----------
A|-----------------------0-----------------
E|-----------------------------------------

E|-----------------------------------------------
B|-------------------------- -----0--------------
G|--0--2-----------------0-----2-----2-----------
D|--------4--------2--4--------------------------
A|-----------------------------------------------
E|-----------------------------------------------

E|-----------------------------
B|-----------------------------
G|--0--2-----------------------
D|--------4--2--0--2-----------
A|-----------------------0-----
E|-----------------------------

E|-----------------------------------
B|-----------------3-----0-----------
G|--------0--2-----------------------
D|--2--4-----------------------------
A|-----------------------------------
E|-----------------------------------

E|--5-----------------------3-----1--3--------------
B|--------------------------------------3-----------
G|--------------------------------------------------
D|--------------------------------------------------
A|--------------------------------------------------
E|--------------------------------------------------

E|--7-----------7-----0--------------------------5--5--------------------
B|-----------------8-----------------0--------------------5---4p---------
G|-----------------------7--------5-----5--2-----------------------------
D|-----------------------------------------------------------------------
A|-----------------------------------------------------------------------
E|-----------------------------------------------------------------------

E|--2-----8--7--5--5-----------4--5--7--4-----------------------
B|--------------------------------------------------------------
G|--------------------------------------------------------------
D|--------------------------------------------------------------
A|--------------------------------------------------------------
E|--------------------------------------------------------------

E|-----------------------------------------------
B|-------------------------- -----0--------------
G|--0--2-----------------0-----2-----2-----------
D|--------4--------2--4--------------------------
A|-----------------------------------------------
E|-----------------------------------------------

E|-----------------------------
B|-----------------------------
G|--0--2-----------------------
D|--------4--2--0--2-----------
A|-----------------------0-----
E|-----------------------------

E|-----------------------------------
B|-----------------------0-----------
G|--------0--2-----2-----------------
D|--2--4-----------2-----------------
A|-----------------------------------
E|-----------------------------------

E|-----------------------------------------------
B|-------------------------- -----0--------------
G|--0--2-----------------0-----2-----2-----------
D|--------4--------2--4--------------------------
A|-----------------------------------------------
E|-----------------------------------------------

E|-----------------------------------------
B|-----------------------------------------
G|--0--2-----------------------------------
D|--------4--2--0--2-----------4-----------
A|-----------------------0-----------------
E|-----------------------------------------

E|-----------------------------------------------
B|-------------------------- -----0--------------
G|--0--2-----------------0-----2-----2-----------
D|--------4--------2--4--------------------------
A|-----------------------------------------------
E|-----------------------------------------------

E|-----------------------------
B|-----------------------------
G|--0--2-----------------------
D|--------4--2--0--2-----------
A|-----------------------0-----
E|-----------------------------

E|-----------------------------------
B|-----------------3-----0-----------
G|--------0--2-----------------------
D|--2--4-----------------------------
A|-----------------------------------
E|-----------------------------------

E|--5-----------------------3-----1--3--------------
B|--------------------------------------3-----------
G|--------------------------------------------------
D|--------------------------------------------------
A|--------------------------------------------------
E|--------------------------------------------------

E|--7-----------7-----0--------------------------5--5--------------------
B|-----------------8-----------------0--------------------5---4p---------
G|-----------------------7--------5-----5--2-----------------------------
D|-----------------------------------------------------------------------
A|-----------------------------------------------------------------------
E|-----------------------------------------------------------------------

E|--2-----8--7--5--5-----------4--5--7--4-----------------------
B|--------------------------------------------------------------
G|--------------------------------------------------------------
D|--------------------------------------------------------------
A|--------------------------------------------------------------
E|--------------------------------------------------------------


        
Comments

@Guitardo (December 27, 2018 at 3:31 AM)

This is super guiding and helpful compared to the super difficult ones on other websites