Gametabs
Home
Tabs
Random

Yoshi's Island

Average rating: No ratings

Composer:

Tabber:

Style:

Instrument:

Created: February 02, 2010 at 12:00 AM

            Yoshi's Island
Super Smash Bros. Brawl
Composed by Koji Kondo
Arranged by Noriyuki Iwadare
Tabbed by hslesperance
11/01/08

Standard Tuning

e---12-8---------------------8--8-------8---------------------
B--------10-8----11-------------------------------------------
G-------------------------------------------------------------
D-------------------------------------------------------------
A-------------------------------------------------------------
E-------------------------------------------------------------

e---3------------1-0------------------------5-3---------------
B--------------------1----------------1-0-1-------------------
G----------------------2-0------------------------------------
D-------------------------------------------------------------
A-------------------------------------------------------------
E-------------------------------------------------------------

e---5-7-5----------------------------------0---3----0--1-0-1--
B---------8-6-5-3-5--1-------------1-0-1-3-------1------------
G----------------------0--------------------------------------
D-------------------------------------------------------------
A-------------------------------------------------------------
E-------------------------------------------------------------

e-------------0---3----0--1-0-1-------------------------------
B---3--1-0-1--------1-----------3--1-0-1----------------------
G-------------------------------------------------------------
D-------------------------------------------------------------
A-------------------------------------------------------------
E-------------------------------------------------------------

e---3------------1-0------------------------5-3---------------
B--------------------1----------------1-0-1-------------------
G----------------------2-0------------------------------------
D-------------------------------------------------------------
A-------------------------------------------------------------
E-------------------------------------------------------------

e---5-7-5----------------------------------0---3----0--1-0-1--
B---------8-6-5-3-5--1-------------1-0-1-3-------1------------
G----------------------0--------------------------------------
D-------------------------------------------------------------
A-------------------------------------------------------------
E-------------------------------------------------------------

e-------------0---3----0--1-0-1-------------------------------
B---3--1-0-1--------1-----------3--1-0-1----------------------
G-------------------------------------------------------------
D-------------------------------------------------------------
A-------------------------------------------------------------
E-------------------------------------------------------------

e---8---------------------------------------------------------
B------10p8h10--pr7rb8----------------------1-----------------
G----------------------5--------0-2--5p2-0--------------------
D-------------------------------------------------------------
A-------------------------------------------------------------
E-------------------------------------------------------------

e------5--8~~------11-10-8------8\6-----------/10--8----------
B---8----------------------8-11-------------------------------
G-------------------------------------------------------------
D-------------------------------------------------------------
A-------------------------------------------------------------
E-------------------------------------------------------------

e-----------------------------------8--7--8-------------------
B---4p3--1-1--------1p0----1----------------------------------
G----------------0------0-----------------5-4---5--4----------
D---------------------------------------------0------0--------
A-------------------------------------------------------------
E-------------------------------------------------------------

e-------------------------5--------------------1p0---1--0-----
B---3-1---3--1------3-2-3----3------1-----1--------2------2---
G-------2------2----------------3h4----0----------------------
D-------------------------------------------------------------
A-------------------------------------------------------------
E-------------------------------------------------------------

e---3p2---3--2--------2---0-----------------------------------
B-------2------2--------------3---0---------------------------
G-------------------------------------------------------------
D------------------------------------4--2---------------------
A-------------------------------------------------------------
E-------------------------------------------------------------

e--------------------------------------------0----------------
B-------------2-3-5--------5p3-0--4b5-------------------------
G-------1-2-4-------------------------------------------------
D---2-4-------------------------------------------------------
A-------------------------------------------------------------
E-------------------------------------------------------------

e--------------3--3--3--3--5--3p2-0---0--------2-0------------
B---3-2-----------------------------3----3-2-3----------------
G-------2-----------------------------------------------------
D---------4-2-------------------------------------------------
A-------------------------------------------------------------
E-------------------------------------------------------------

e---2-4-2-0---------------------------------0--5-----0--2-0---
B-----------3-2-0-2-----------------2-0-2-3-------2---------3-
G--------------------2----------------------------------------
D----------------------2--------------------------------------
A-------------------------------------------------------------
E-------------------------------------------------------------

e-------------0-----------------------------------------------
B----------2--------2--3-2-3-0--------------------------------
G---2-1-2--------2-------------2-1-2-2------------------------
D-------------------------------------------------------------
A-------------------------------------------------------------
E-------------------------------------------------------------

e---5--------8------------8h10p8-----8------------------------
B------7p5h7----------------------10--------------0-----------
G-------------------------------------------------------------
D-------------------------------------------------------------
A-------------------------------------------------------------
E-------------------------------------------------------------

p - pull off
h - hammer on
pb- pre-bend
b - bend
r - release
\ - slide down

        
Comments

No comments yet