Gametabs
Home
Tabs
Random

Unfounded Revenge

Average rating: 5.000

3 ratings

Composer:

Tabber:

Style:

Instrument:

Created: October 29, 2011 at 12:00 AM

            e]--------------------------------------------------8---8---8---8--------------------------
B]-----4-4-4---4-4-4---4-4-4---4-4-----------6-8------6------------------------------------
G]-----5-5-5---5-5-5---5-5-5---5-5-----5-7-8--------------8---7---5----8-7------7----------
D]-----------------------------------5-------------------------------------9------9--------
A]---3-------3-------3-------3-----------------------------------------------10-----10-----
E]-----------------------------------------------------------------------------------------
    
  (0:08)
  ----------------------------------------8---8---8---8------------------------------------
  ---------------------------------6-8------6----------------8-7------7-----8-6h8p6--------
  ---10-8h10p8p7h8-----------5-7-8--------------8---7---5---------8-5---8-5---------8-7-5--
  -----------------10------5---------------------------------------------------------------
  -----------------------------------------------------------------------------------------
  -----------------------------------------------------------------------------------------
  
  (0:16)
  ---------------8---10h11p10----11----11---11-------------------6---8h10p8----8---8---8---
  --9--9-9-9---9--------------13----11----9----8----8--8-8-8---8------------11---9---8-----
  -----------8-----------------------------------------------8---------------------------10
  -----------------------------------------------------------------------------------------
  -----------------------------------------------------------------------------------------
  -----------------------------------------------------------------------------------------
  
  (0:22)
  ---------------4---7h8p7---7----7---7------------------------
  --6--6-6-6---6-----------8-------------------------------8---
  -----------5-----------------10---8---7----8--8-8-8----8-----
  ----------------------------------------------------10-------
  -------------------------------------------------------------
  -------------------------------------------------------------
  
  (0:28)
  ----------------------------------8h10h11---
  --------------------------9----11-----------
  --9-------9h10h12-9h10h12---12--------------
  ----10h12-----------------------------------
  --------------------------------------------
  --------------------------------------------
  
  (0:30)
  ---------------8---10h11p10----11----11---11-------------------6---8h10p8----8---8---8---
  --9--9-9-9---9--------------13----11----9----8----8--8-8-8---8------------11---9---8-----
  -----------8-----------------------------------------------8---------------------------10
  -----------------------------------------------------------------------------------------
  -----------------------------------------------------------------------------------------
  -----------------------------------------------------------------------------------------
  
  (0:36)
  ---------------4---7h8p7---7----7---7----------------------------------------------------
  --6--6-6-6---6-----------8---------------------------------------------------------------
  -----------5-----------------10---8---7----8--8-8-8--------------------------------------
  ----------------------------------------------------10-----------------------------------
  --------------------------------------------------------------9--[9-9-9-9-9--9-9-9-9-9]x3
  --------------------------------------------------------------8--[8-8-8-8-8--8-8-8-8-8]--
  
  (0:48)
  ---------------------------------------
  ---------------------------------------
  ---------------------------------------
  ----------------------------------16~~-
  --9-9-9-9-9--9-9------------14h15------
  --8-8-8-8-8--8-8------14h15------------

  (0:53)                     (Guitar 1)
  -----------14h15--19-20-19-16-----------------14-14-
  --------16--------------------18p16-----------------   
  --16h17-----------------------------17p16--13-------  H
  ----------------------------------------------------  A
  ----------------------------------------------------  R
  ----------------------------------------------------  M
                             (Guitar 2)                 O
  ----------------------------------------------------  N
  --------------16--15-16-15-18-15--------------------  Y
  -----------16--------------------17-----------20-20-
  --------17--------------------------17-17-----------
  --17h18------------------------------------18-------
  ----------------------------------------------------

  (0:56)
  ------------------12-13-12------------------------------------------------
  -----------12h13-----------14---------------------------------------------
  --------12--------------------15-14-12----------12-12---------------------
  --13h14--------------------------------15-14-12----------------------16~~-
  ---------------------------------------------------------------14h15------
  ---------------------------------------------------------14h15------------
       
  (1:03)                           (Guitar 1)
  ----------------------------------------------------14-15-
  --13p12h13----13----13------------------------12h13-------
  -----------12----11----12------------------12-------------  H
  -------------------------------------13h16----------------  A
  ----------------------------15p14h15----------------------  R
  ----------------------------------------------------------  M
                                   (Guitar 2)                 O
  ----------------------------------------------------10-11-  N
  -------------------------------------------------8--------  Y
  --12p11h12----12----12---------------------8--11----------
  -----------13----12----10------------9h10-----------------
  ----------------------------10p9h10-----------------------
  ----------------------------------------------------------

  (1:07)
  --11p10h11----11----11---11---10----10---10----10-8-7-8--6-8---8---8---8---8---8----
  -----------13----11----9----8--------------------------------9---8---6--------------
  ---------------------------------10----8----7----------------------------8---7---5--
  ------------------------------------------------------------------------------------
  ------------------------------------------------------------------------------------
  ------------------------------------------------------------------------------------
  
  (1:13)
  --8-8p7h8---8---8---8---8---8---8--------------------------------------------------------
  ----------9---8---6-------------------9p8p7h8----8---8---8---------------8p7h8--11p10h11-
  ----------------------8---7---5---------------10---8---7-----------8p7h8-----------------
  ----------------------------------8--------------------------8p7h8-----------------------
  -----------------------------------------------------------------------------------------
  -----------------------------------------------------------------------------------------
  
  (1:20)
  ------------------12-13-12-------------------------------
  -----------12h13-----------14----------------------------
  --------12--------------------15-14--12----------12-12---
  --13h14---------------------------------15-14-12---------
  ---------------------------------------------------------
  ---------------------------------------------------------
  
  (1:25)
  --11---10~---------10---8~---------8---6~----------
  --13---7~------------------------------------------
  -------------------10---5~---------8---3~----------
  ---------------------------------------------------
  ---------------------------------------------------
  --------------------------------------------3~~~~--
  
  (1:37)
  -----------------------------------------------------------------------------------------
  -----------------------------------------------------------------------------------------
  --14-----------------12----------------10--------------9-8-7~~---------4~~~--------------
  --15--12h14p12p11h12-14--10h12p10p9h10-12--9h11p9p8h9------------------------------------
  -----------------------------------------------------------------------------------------
  -----------------------------------------------------------------------------------------
  
  (1:45)
  ----------------------------------------
  -----4-4-4---4-4-4---4-4-4---4-4-4------
  -----5-5-5---5-5-5---5-5-5---5-5-5------
  ----------------------------------------
  ---3-------3-------3-------3------------
  ----------------------------------------




        
Comments

@Treeji (October 30, 2011 at 4:33 PM)

Perfect