Gametabs
Home
Tabs
Random

Underground Theme (Super Mario Bros.)

Average rating: 3.000

1 ratings

Composer:

Tabber:

Style:

Instrument:

Created: February 02, 2010 at 12:00 AM

            Underground Theme (Super Mario Bros.)
Super Smash Bros. Brawl
Composed by Koji Kondo
Arranged by Kentaro Ishizaka
Tabbed by hslesperance
11/7/08

Drop-D Tuning

The order changes during the song, but these are the three main parts.

e--------------------------------------------------------------
B-----1------------------1-------------------------------------
G---------2---3---------------2---3----------------------------
D--------------------------------------------------------------
A---3---0---1----------3----0---1------------------------------
D--------------------------------------------------------------

e--------------------------------------------------------------
B--------------------------------------------------------------
G--------------------------------------------------------------
D-----3---0---1----------3---0---1-----------------------------
A--------------------------------------------------------------
D---3---0---1----------3---0---1-------------------------------

e--------------------------------------------------------------
B--------------------------------------------------------------
G-------------------------------------3p2p1-1------------------
D---1-0------1--0-------------3p2p1p0----------1---------------
A-------4-3--------------4--3---------------------2--1--0------
D------------------6--5------------------------------------6---
        
Comments

No comments yet