Gametabs
Home
Tabs
Random

Title / Ending (Super Mario World)

Average rating: No ratings

Composer:

Tabber:

Style:

Instrument:

Created: March 29, 2009 at 12:00 AM

            Title / Ending (Super Mario World)
Super Smash Bros. Brawl
Composed by Koji Kondo
Arranged by Shota Kageyama
Tabbed by hslesperance
11/2/08

Standard Tuning

e---10--10--10-----10--10--10-----11--------10----------------
B-------------------------------------------------------------
G---------------7--------------7------------------------------
D-------------------------------------------------------------
A-------------------------------------------------------------
E-------------------------------------------------------------

e------7--7--7-----7--7--7-----7--7--7--7-8-7----5------------
B-------------------------------------------------------------
G---7-----------7-----------7---------------------------------
D-------------------------------------------------------------
A-------------------------------------------------------------
E-------------------------------------------------------------

e------5--5--5-----5--5--5-----5--5--5--5-7-5-----------------
B------------------------------------------------8------------
G-------------------------------------------------------------
D---7-----------7-----------7---------------------------------
A-------------------------------------------------------------
E-------------------------------------------------------------

e------7--7--7-----7--7--7-----7--7--7--5-7-8----12-----------
B-------------------------------------------------------------
G---7-----------7-----------7---------------------------------
D-------------------------------------------------------------
A-------------------------------------------------------------
E-------------------------------------------------------------

e---10--10--10-----8--8--8------------------------------------
B---------------------------7--8------------------------------
G---------------7---------------------------------------------
D-------------------------------------------------------------
A-------------------------------------------------------------
E-------------------------------------------------------------

e---------------3----2----0--5----3-2--3--5----8--7-----------
B---3---1-0--3---------4--------------------------------------
G-------------------------------------------------------------
D-------------------------------------------------------------
A-------------------------------------------------------------
E-------------------------------------------------------------

e---------------3----2----0--5-------------8------------------
B---3---1-0--3---------4----------8-7--6-7------7--8----------
G-------------------------------------------------------------
D-------------------------------------------------------------
A-------------------------------------------------------------
E-------------------------------------------------------------

e-----------------8--7-8-7-5-7-5------------------------------
B---5--5--5--7-8-----------------8----------5--5--5--7--8-----
G-----------------------------------------8-------------------
D-------------------------------------------------------------
A-------------------------------------------------------------
E-------------------------------------------------------------

e---8--7-8-7-5-7-5--------------------------8----10-9-10------
B------------------8----------5--5--5--7-8---------------10---
G---------------------------8---------------------------------
D-------------------------------------------------------------
A-------------------------------------------------------------
E-------------------------------------------------------------

e---------------------------------10--------10----------------
B---------10------------------10------------------------------
G---7-6-7-----8---------7-------------------------------------
D-------------------------7-0---------------------------------
A-------------------------------------------------------------
E-------------------------------------------------------------

e---0------0-0-------3-3-------3-3----3-----------------------
B-------------------------------------------------------------
G-------------------------0-0---------------------------------
D-----0-0-------0-0-------------------------------------------
A-------------------------------------------------------------
E-------------------------------------------------------------

e-------5--------5-7--7-5----------3-5-3----4-5--5-3----------
B---5-8---8--------------------3-5----------------------------
G-------------------------------------------------------------
D-------------------------------------------------------------
A-------------------------------------------------------------
E-------------------------------------------------------------

e-----5-7-8-5------5---4-5-------------------------------3----
B---8----------------8------5------5--4-3--5--4-3--5--3-------
G-------------------------------------------------------------
D-------------------------------------------------------------
A-------------------------------------------------------------
E-------------------------------------------------------------

e-------5--------5-7--7-5----------3-5-3--4-5--5-3------------
B---5-8---8--------------------3-5----------------------------
G-------------------------------------------------------------
D-------------------------------------------------------------
A-------------------------------------------------------------
E-------------------------------------------------------------

e-----5-7-8-5------5---4-5--12----12-11-12--------------------
B---8----------------8---------------------13--13-10--13------
G-------------------------------------------------------------
D-------------------------------------------------------------
A-------------------------------------------------------------
E-------------------------------------------------------------

e---8-7-6-5/12--12-11-12-13-12------------------12-10-12-10---
B------------------------------14-10--------10----------------
G-------------------------------------------------------------
D-------------------------------------------------------------
A-------------------------------------------------------------
E-------------------------------------------------------------

e---12-10---------------------------12------------------------
B----------10--------8/15--15-14-15----15-12-----13/15--------
G--------------------------------------------12---------------
D-------------------------------------------------------------
A-------------------------------------------------------------
E-------------------------------------------------------------

e--------------------12--------5/12--12-11-12-13-12-----------
B---13--13--13-14-15--------------------------------14--------
G------------------------------------------------------14-----
D-------------------------------------------------------------
A-------------------------------------------------------------
E-------------------------------------------------------------

e------12-10-12-10--12-10--------------------------------12---
B----------------------------------------13/15--15-14-15------
G---14---------------------14--------12-----------------------
D-------------------------------------------------------------
A-------------------------------------------------------------
E-------------------------------------------------------------

e-----------------------------11-12---------------------------
B---15-------15-13--13--13-15---------------------------------
G------12------------------------------12---------------------
D-------------------------------------------------------------
A-------------------------------------------------------------
E-------------------------------------------------------------

e-------5--------5-7--7-5----------3-5-3--4-5----5-3----------
B---5-8---8--------------------3-5----------------------------
G-------------------------------------------------------------
D-------------------------------------------------------------
A-------------------------------------------------------------
E-------------------------------------------------------------

e-----5-7-8-5------5---4-5-------------------------------3----
B---8----------------8------5------5--4-3--5--4-3--5--3-------
G-------------------------------------------------------------
D-------------------------------------------------------------
A-------------------------------------------------------------
E-------------------------------------------------------------

e---5---5----5-7--7-5------5---5----4-5--5----------5-7-8-5---
B-----8---8------------------8---8---------8------8-----------
G-------------------------------------------------------------
D-------------------------------------------------------------
A-------------------------------------------------------------
E-------------------------------------------------------------

e---5---4-5-12------------------------------------------------
B-----8-------------------------------------------------------
G-------------------------------------------------------------
D-------------------------------------------------------------
A-------------------------------------------------------------
E-------------------------------------------------------------

e---0------0-0-------3-3-------3-3----3-----------------------
B-------------------------------------------------------------
G-------------------------0-0---------------------------------
D-----0-0-------0-0-------------------------------------------
A-------------------------------------------------------------
E-------------------------------------------------------------

e---8--8-6--6-5--5-------------------------15-----------------
B------------------9--9-8-------8--12--16---------------------
G----------------------------7--------------------------------
D-------------------------5-----------------------------------
A-------------------------------------------------------------
E-------------------------------------------------------------

/ - slide up

        
Comments

No comments yet