Gametabs
Home
Tabs
Random

Tetris: Type B

Average rating: No ratings

Composer:

Tabber:

Style:

Instrument:

Created: February 02, 2010 at 12:00 AM

            Tetris: Type B
Super Smash Bros. Brawl
Composed by Hirokazu Tanaka
Arranged by Masafumi Takada
Tabbed by hslesperance
11/15/08

Standard Tuning

e-----------------12--11--12-------------------------------------
B---5---------12--------------12-12--13------12------------------
G---4--4-7-------------------------------14------12-12--14--11---
D----------------------------------------------------------------
A----------------------------------------------------------------
E----------------------------------------------------------------

e-----------------------------------------------------12--11--12-
B-------------------------------------------------12-------------
G---12--9-9--11--8--9---------8--9---------10--9-----------------
D----------------------9--10--------9--10------------------------
A----------------------------------------------------------------
E----------------------------------------------------------------

e----------------------------------------------------------------
B---12-12--13------12--------------------------------------------
G--------------14------12-12--14--11--12--9-9--11--8--9----------
D-----------------------------------------------------9--9--10---
A----------------------------------------------------------------
E----------------------------------------------------------------

e----------------------------------------------------------------
B-----------------------------7--4--5--------7---8--8-8-10--7----
G---8--9---------10--9-------------------------------------------
D---------9--10--------------------------------------------------
A----------------------------------------------------------------
E----------------------------------------------------------------

e---------------------------5---7--7-7-8--5--7--7-7-8--5--7------
B---8--8-8--10--7--8---------------------------------------------
G----------------------------------------------------------------
D----------------------------------------------------------------
A----------------------------------------------------------------
E----------------------------------------------------------------

e---9--10--10-10-10-10--12------10------10--10-10-10-10--12------
B---------------------------12------12-----------------------12--
G----------------------------------------------------------------
D----------------------------------------------------------------
A----------------------------------------------------------------
E----------------------------------------------------------------

e---10--9--10--10-10--10--10--9--9-9--9--9--8--8-8--8------------
B------------------------------------------------------10--7--8--
G----------------------------------------------------------------
D----------------------------------------------------------------
A----------------------------------------------------------------
E----------------------------------------------------------------

e----------------------------------------------------------------
B---10-----10--8-8----8--------------10--8-8----8----------------
G-------7----------7------7-9-7---7----------7------7-9-7--6-7---
D----------------------------------------------------------------
A----------------------------------------------------------------
E----------------------------------------------------------------

e----------------------------------------------------------------
B---4--5--5-5-------5--5-5-------5--5-5--------5--5-5------------
G-------------4--4---------4--4----------4--4---------4--4-------
D----------------------------------------------------------------
A----------------------------------------------------------------
E----------------------------------------------------------------

        
Comments

No comments yet