Gametabs
Home
Tabs
Random

Stage Clear / Title (Pikmin)

Average rating: 5.000

1 ratings

Composer:

Tabber:

Style:

Instrument:

Created: February 02, 2010 at 12:00 AM

            Stage Clear / Title (Pikmin)
Super Smash Bros. Brawl
Composed by Hajime Wakai
Arranged by Kentaro Ishizaka
Tabbed by hslesperance
10/30/08

Standard Tuning

e---4-----1--2-1-2-4--------4-----1--2-1-2-6--------9-8-6---------
B-----4-3---------------------4-3-------------------------9-6-----
G-------------------------------------------------------------6---
D-----------------------------------------------------------------
A-----------------------------------------------------------------
E-----------------------------------------------------------------

e---7-6-4--------------9-8-6--------------7-6-4-------------------
B---------7-4----------------9-6----------------7-4---------------
G-------------4------------------6------------------4-------------
D-----------------------------------------------------------------
A-----------------------------------------------------------------
E-----------------------------------------------------------------

e-----------1--1h3p1h3-5--5h7p5h7-9------11--14--13---------------
B---2h4p2h4--------------------------14---------------------------
G-----------------------------------------------------------------
D-----------------------------------------------------------------
A-----------------------------------------------------------------
E-----------------------------------------------------------------

e-----------------------------------------1-----------1-----------
B-------------------------------------1-2---2-1---1-2---2-1---1-2-
G-----------------------------------1-----------1-----------1-----
D---3------4--3---------------------------------------------------
A--------4-------------4------------------------------------------
E-----------------------------------------------------------------

e---1-----------1-------------------------------------------1-----
B-----2-1---1-2---2-1-----------------------------------1-2---2-1-
G---------1-----------1-------------------------------1-----------
D---------------------3------4--3---------------------------------
A--------------------------4-------------4------------------------
E-----------------------------------------------------------------

e---------1-------------------------------------------------------
B-----1-2---2-1---------------------------------------------------
G---1-----------1-------------------------------------------------
D-----------------------------------------------------------------
A-----------------------------------------------------------------
E-----------------------------------------------------------------

e-----------------1-------------------0h1----1-2-------------6----
B------2--------2---2----4h6-2-2-2----------------4---------------
G---1-----1-1-1-------1--------------------------------3-4--------
D-----------------------------------------------------------------
A-----------------------------------------------------------------
E-----------------------------------------------------------------

e---2--1------4-------4-------------2------------4-6-7-6-4--------
B---------4-2---2-4-2---2-4-2-0-2-4----2-0-2-4-2-----------7-6-4--
G-----------------------------------------------------------------
D-----------------------------------------------------------------
A-----------------------------------------------------------------
E-----------------------------------------------------------------

e--------6--------7-------------11--------------9-----9-----------
B----------------------9------7-------12--11-------11---11------9-
G---4-6----------------------------------------------------9-11---
D-----------------------------------------------------------------
A-----------------------------------------------------------------
E-----------------------------------------------------------------

e------9--------------------9-11-12-11-9--------------------------
B---11---11-11---------9-----------------12-11-9-------9----------
G--------------11-9-11---11----------------------9-11-------------
D-----------------------------------------------------------------
A-----------------------------------------------------------------
E-----------------------------------------------------------------

e-----------------------------------------------------------------
B---11-----------------7/9----------------------------------------
G-------11----10-11-----------------------------------------------
D---------------------------11----------------11----11----11------
A-----------------------------------------------------------------
E-----------------------------------------------------------------

e---6---------7--6------------------------------------------------
B----------7----------7-------------9----9-11-12-11-9-11-12-11-12-
G------------------------------9-11---11--------------------------
D-----------------------------------------------------------------
A-----------------------------------------------------------------
E-----------------------------------------------------------------

e---9-11-9----9-11-11----12----14----12-11-------9-11-12----------
B----------12---------12----14----16-------14-12------------------
G-----------------------------------------------------------------
D-----------------------------------------------------------------
A-----------------------------------------------------------------
E-----------------------------------------------------------------

e---9----11--9------------------16-18-19--------------------------
B--------------------11------19----------12--11-9-11--9-11-12-----
G-----------------------------------------------------------------
D-----------------------------------------------------------------
A-----------------------------------------------------------------
E-----------------------------------------------------------------

e-------------9--9-11-12-11-12-14-16-14-12-14-16-14-19-18-16------
B---9-11-12--------------------------------------------------19---
G-----------------------------------------------------------------
D-----------------------------------------------------------------
A-----------------------------------------------------------------
E-----------------------------------------------------------------

e-------------------------7-6-7-9---------------------------------
B---17-16-17-19-9-7-9-11------------------------------------------
G-------------------------------------------4p3h4--3-4-6--4-3-4-6-
D----------------------------------6-4-6-8------------------------
A-----------------------------------------------------------------
E-----------------------------------------------------------------

e-----------------------------------------------------------------
B---6-4-6-8--7-------------------------9-11--11----9-11--11-9-11--
G---------------8-6-8-9--9p8h9-8--9-11----------11----------------
D-----------------------------------------------------------------
A-----------------------------------------------------------------
E-----------------------------------------------------------------

e-----------------------9-----------------------------------------
B---12--12p11h12-11--12---------9----------10-12-10--9-10---------
G--------------------------9-11---11-9-11-------------------------
D-----------------------------------------------------------------
A-----------------------------------------------------------------
E-----------------------------------------------------------------

e-----------------------------------3-5---5----6--8---------------
B---------------3-------3-5-6-3-5-6-----8---6--------7------------
G---------2-3-5---5-3-5-------------------------------------------
D---5-3-5---------------------------------------------------------
A-----------------------------------------------------------------
E-----------------------------------------------------------------

h - hammer on
p - pull off
/ - slide up

        
Comments

No comments yet