Gametabs
Home
Tabs
Random

Shin Onigashima

Average rating: 4.647

17 ratings

Composer:

Tabber:

Style:

Instrument:

Created: April 01, 2008 at 12:00 AM

            Shin Onigashima
Super Smash Brothers Brawl
 (archard)
4/1/08


This tab is just for the lead guitar. It's super fast and was really hard
to transcribe by ear, so some of the timing is bound to be wrong, especially
in the intro. It's a tab though so what the hey. Just listen to the song. 
I believe all of the notes are correct though.

By the way, this song is EPIC.


     H.           E.  T T    H.           E  E     E   E  E   E   H         
E||-----------------------|---------------------|---------7--10--12--------|
B||-----------------------|---------------------|--8--10-------------------|
G||-------------------9-7-|--9------------7--9--|--------------------------|
D||-----------------------|---------------------|--------------------------|
A||-----------------------|---------------------|--------------------------|
E||-----------------------|---------------------|--------------------------|


   S  S  S  S  Q.      E   Q        Q     Q     H         
--12-15-12----12------15--12----|--------12----15--------|
-----------15-------------------|--15--------------------|
--------------------------------|------------------------|
--------------------------------|------------------------|
--------------------------------|------------------------|
--------------------------------|------------------------|


   Q     H.               W                                         
--12------------------|--12----------------|-----------|-----------|
--------15------------|--------------------|-----------|-----------|
----------------------|--------------------|-----------|-----------|
----------------------|--------------------|-----------|-----------|
----------------------|--------------------|-----------|-----------|
----------------------|--------------------|-----------|-----------|


  H.           E  E     H.           E   E     H.           E  E   
---------------------|----------------------|---------------------|
---------------------|---------------8--10--|------------------8--|
---------------7--9--|--9-------------------|--9------------9-----|
---------------------|----------------------|---------------------|
---------------------|----------------------|---------------------|
---------------------|----------------------|---------------------|


  H.            T  T  S  S  S     H.            E   E   
---------------10-12-10-------|----------------12--10--|
--7---------------------12-10-|--12--------------------|
------------------------------|------------------------|
------------------------------|------------------------|
------------------------------|------------------------|
------------------------------|------------------------|


   H.            E   S  S     Q.      S  S H         
--12------------10-----10-|-------------------------|
--------------------12----|--12------10-------------|
--------------------------|-------------12-9--------|
--------------------------|-------------------------|
--------------------------|-------------------------|
--------------------------|-------------------------|


  H         Q    T T S S S    H        H                                 
---------------------------|--------------------|-----------|-----------|
--8--------10----7-8-7-----|--------------------|-----------|-----------|
-----------------------9-7-|--9-----------------|-----------|-----------|
---------------------------|--------------------|-----------|-----------|
---------------------------|--------------------|-----------|-----------|
---------------------------|--------------------|-----------|-----------|


  H.           E  E     H.           E   E     H.           E  E   
---------------------|----------------------|---------------------|
---------------------|---------------8--10--|------------------8--|
---------------7--9--|--9-------------------|--9------------9-----|
---------------------|----------------------|---------------------|
---------------------|----------------------|---------------------|
---------------------|----------------------|---------------------|


  H.            T  T  S  S  S     H.            E   E   
---------------10-12-10-------|----------------12--10--|
--7---------------------12-10-|--12--------------------|
------------------------------|------------------------|
------------------------------|------------------------|
------------------------------|------------------------|
------------------------------|------------------------|


   H.            E   S  S     Q.      S  S H         
--12------------10-----10-|-------------------------|
--------------------12----|--12------10-------------|
--------------------------|-------------12-9--------|
--------------------------|-------------------------|
--------------------------|-------------------------|
--------------------------|-------------------------|


  H         Q    T T S S S    H        Q    E  E     H.           S S S S  
---------------------------|----------------------|-----------------------|
--8--------10----7-8-7-----|----------------8--8--|--8------------8-6---6-|
-----------------------9-7-|--9-------------------|-------------------8---|
---------------------------|----------------------|-----------------------|
---------------------------|----------------------|-----------------------|
---------------------------|----------------------|-----------------------|


  H.           E  E     H.           T T S S S    H.           E  E   
---------------------|-------------------------|---------------------|
---------------------|-------------------------|---------------8--8--|
--7------------7--7--|--5------------5-7-5---5-|--7------------------|
---------------------|---------------------8---|---------------------|
---------------------|-------------------------|---------------------|
---------------------|-------------------------|---------------------|


  H.           T T S S S    H        Q    E  E     H.           T  T S  S S  
---------------8-6-------|----------------------|---------------------------|
--8----------------8-6-8-|--6-------------8--8--|--8------------8-11-8------|
-------------------------|-----------7----------|----------------------10-8-|
-------------------------|----------------------|---------------------------|
-------------------------|----------------------|---------------------------|
-------------------------|----------------------|---------------------------|


  E  S  E   S E   Q    E  E     H.           E   E     H.           E  E   
-----------------------------|----------------------|---------------------|
--8--8--------8--11----------|---------------8--10--|------------------8--|
-------10--10----------7--9--|--9-------------------|--9------------9-----|
-----------------------------|----------------------|---------------------|
-----------------------------|----------------------|---------------------|
-----------------------------|----------------------|---------------------|


  H        E   T  T  S  E.   S     H.            E   E   
--------------10-12-10---------|----------------12--10--|
--7--------------------12---10-|--12--------------------|
-------------------------------|------------------------|
-------------------------------|------------------------|
-------------------------------|------------------------|
-------------------------------|------------------------|


   H         E.   E.   E      Q.      S  S H         
--12--------10--------10--|-------------------------|
-----------------12-------|--12------10-------------|
--------------------------|-------------12-9--------|
--------------------------|-------------------------|
--------------------------|-------------------------|
--------------------------|-------------------------|


  H         Q    T T S S S    H         Q    T T S S S  
---------------------------|---------------------------|
--8--------10----7-8-7-----|--8--------10----7-8-7-----|
-----------------------9-7-|-----------------------9-7-|
---------------------------|---------------------------|
---------------------------|---------------------------|
---------------------------|---------------------------|


    PH                                                                
    H         Q    T T S S S    W                                     
-----------------------------|-------------------|-------------------|
--<>8--------10----7-8-7-----|-------------------|-------------------|
-------------------------9-7-|--9----------------|-------------------|
-----------------------------|-------------------|-------------------|
-----------------------------|-------------------|-------------------|
-----------------------------|-------------------|-------------------|


                      H.            E   E      H        E   E   E   E   
-------------------|---------------13--15--|--12-----------------------|
-------------------|-----------------------|---------------13--12--10--|
-------------------|-----------------------|---------------------------|
-------------------|-----------------------|---------------------------|
-------------------|-----------------------|---------------------------|
-------------------|-----------------------|---------------------------|


   H        E    Q     S  S     H        E   E   E   E   
----------------------------|---------------------------|
--13-----------/15----13-12-|--12-----------------------|
----------------------------|---------------12------12--|
----------------------------|-------------------14------|
----------------------------|---------------------------|
----------------------------|---------------------------|


   H.            E   E      H        E   E   E   E   
------------------------|---------------------------|
--------------------12--|-----------------------12--|
--12------------14------|--12-----------12--14------|
------------------------|---------------------------|
------------------------|---------------------------|
------------------------|---------------------------|


   E   E   H        E   E      Q     Q     Q     E   E   
---------------------------|--------------------12------|
---------------------------|------------------------15--|
---------------------------|--------------14------------|
--14--12--14---------------|--12----15------------------|
-----------------------15--|----------------------------|
---------------------------|----------------------------|


   E   H        E   E   E      H         E   Q     E   
-------------------13--15--|--12~---------------------|
---L--12-------------------|----------------13----10--|
---------------------------|--------------------------|
---------------------------|--------------------------|
---------------------------|--------------------------|
---------------------------|--------------------------|


   H        E    Q     S  S     H        E   Q     E      H.            E   E   
----------------------------|-------------------------|------------------------|
--13-----------/15----13-12-|--12---------------------|------------------------|
----------------------------|---------------12--------|--12------------12--14--|
----------------------------|---------------------14--|------------------------|
----------------------------|-------------------------|------------------------|
----------------------------|-------------------------|------------------------|


   H        E   E   E   E      E   E   H        E   E   
---------------------------|---------------------------|
-----------------------12--|---------------------------|
---------------12--14------|---------------------------|
--15-----------------------|--14--12--14---------------|
---------------------------|-----------------------15--|
---------------------------|---------------------------|


   Q     Q     Q     E   E      Q     H.               H        E   E   E   E   
--------------------12------|----------------------|---------------10----------|
------------------------15--|---L----12------------|--13---------------13--12--|
--------------14------------|----------------------|---------------------------|
--12----15------------------|----------------------|---------------------------|
----------------------------|----------------------|---------------------------|
----------------------------|----------------------|---------------------------|


   Q     Q     Q     Q        H        E   E   E   E   
--------------------------|---------------10----------|
--13----12----13----12----|--13---------------13--12--|
--------------------------|---------------------------|
--------------------------|---------------------------|
--------------------------|---------------------------|
--------------------------|---------------------------|


   E.   E.   Q.      Q        Q     Q.      Q     S  S     H.            Q     
--------------------12----|--12------------10----------|----------------------|
--13---12---10------------|--------13------------13-12-|--12------------------|
--------------------------|----------------------------|----------------12----|
--------------------------|----------------------------|----------------------|
--------------------------|----------------------------|----------------------|
--------------------------|----------------------------|----------------------|


   W                    H         H                                             
--------------------|------------17--------|-----------|-----------|-----------|
--10----------------|---L------------------|-----------|-----------|-----------|
--------------------|----------------------|-----------|-----------|-----------|
--------------------|----------------------|-----------|-----------|-----------|
--------------------|----------------------|-----------|-----------|-----------|
--------------------|----------------------|-----------|-----------|-----------|


  H.           E  E     H.           E   E     H.           E  E   
---------------------|----------------------|---------------------|
---------------------|---------------8--10--|------------------8--|
---------------7--9--|--9-------------------|--9------------9-----|
---------------------|----------------------|---------------------|
---------------------|----------------------|---------------------|
---------------------|----------------------|---------------------|


  H.            T  T  S  S  S     H.            E   E   
---------------10-12-10-------|----------------12--10--|
--7---------------------12-10-|--12--------------------|
------------------------------|------------------------|
------------------------------|------------------------|
------------------------------|------------------------|
------------------------------|------------------------|


   H.            E   S  S     Q.      S  S H         
--12------------10-----10-|-------------------------|
--------------------12----|--12------10-------------|
--------------------------|-------------12-9--------|
--------------------------|-------------------------|
--------------------------|-------------------------|
--------------------------|-------------------------|


  H         Q    T T S S S    H        Q    E  E     H.           S S S S  
---------------------------|----------------------|-----------------------|
--8--------10----7-8-7-----|----------------8--8--|--8------------8-6---6-|
-----------------------9-7-|--9-------------------|-------------------8---|
---------------------------|----------------------|-----------------------|
---------------------------|----------------------|-----------------------|
---------------------------|----------------------|-----------------------|


  H.           E  E     H.           T T S S S    H.           E  E   
---------------------|-------------------------|---------------------|
---------------------|-------------------------|---------------8--8--|
--7------------7--7--|--5------------5-7-5---5-|--7------------------|
---------------------|---------------------8---|---------------------|
---------------------|-------------------------|---------------------|
---------------------|-------------------------|---------------------|


  H.           S S S S    H        Q    E  E     H.           T  T S  S S  
---------------8-6---6-|----------------------|---------------------------|
--8----------------8---|--6-------------8--8--|--8------------8-11-8------|
-----------------------|-----------7----------|----------------------10-8-|
-----------------------|----------------------|---------------------------|
-----------------------|----------------------|---------------------------|
-----------------------|----------------------|---------------------------|


  E  S  E   S E   Q    E  E     H.           E   E     H.           E  E   
-----------------------------|----------------------|---------------------|
--8--8--------8--11----------|---------------8--10--|------------------8--|
-------10--10----------7--9--|--9-------------------|--9------------9-----|
-----------------------------|----------------------|---------------------|
-----------------------------|----------------------|---------------------|
-----------------------------|----------------------|---------------------|


  H        E   T  T  S  E.   S     H.            E   E   
--------------10-12-10---------|----------------12--10--|
--7--------------------12---10-|--12--------------------|
-------------------------------|------------------------|
-------------------------------|------------------------|
-------------------------------|------------------------|
-------------------------------|------------------------|


   H         E.   E.   E      Q.      S  S H         
--12--------10--------10--|-------------------------|
-----------------12-------|--12------10-------------|
--------------------------|-------------12-9--------|
--------------------------|-------------------------|
--------------------------|-------------------------|
--------------------------|-------------------------|


  H         Q    T T S S S    H         Q    T T S S S  
---------------------------|---------------------------|
--8--------10----7-8-7-----|--8--------10----7-8-7-----|
-----------------------9-7-|-----------------------9-7-|
---------------------------|---------------------------|
---------------------------|---------------------------|
---------------------------|---------------------------|


    PH                                                                
    H         Q    T T S S S    W                                     
-----------------------------|-------------------|-------------------|
--<>8--------10----7-8-7-----|-------------------|-------------------|
-------------------------9-7-|--9----------------|-------------------|
-----------------------------|-------------------|-------------------|
-----------------------------|-------------------|-------------------|
-----------------------------|-------------------|-------------------|


                      H.            E   E      H        E   E   E   E   
-------------------|---------------13--15--|--12-----------------------|
-------------------|-----------------------|---------------13--12--10--|
-------------------|-----------------------|---------------------------|
-------------------|-----------------------|---------------------------|
-------------------|-----------------------|---------------------------|
-------------------|-----------------------|---------------------------|


   H        E    Q     S  S     H        E   E   E   E   
----------------------------|---------------------------|
--13-----------/15----13-12-|--12-----------------------|
----------------------------|---------------12------12--|
----------------------------|-------------------14------|
----------------------------|---------------------------|
----------------------------|---------------------------|


   H.            E   E      H        E   E   E   E   
------------------------|---------------------------|
--------------------12--|-----------------------12--|
--12------------14------|--12-----------12--14------|
------------------------|---------------------------|
------------------------|---------------------------|
------------------------|---------------------------|


   E   E   H        E   E      Q     Q     Q     E   E   
---------------------------|--------------------12------|
---------------------------|------------------------15--|
---------------------------|--------------14------------|
--14--12--14---------------|--12----15------------------|
-----------------------15--|----------------------------|
---------------------------|----------------------------|


   E   H        E   E   E      H         E   Q     E   
-------------------13--15--|--12~---------------------|
---L--12-------------------|----------------13----10--|
---------------------------|--------------------------|
---------------------------|--------------------------|
---------------------------|--------------------------|
---------------------------|--------------------------|


   H        E    Q     S  S     H        E   E   E   E   
----------------------------|---------------------------|
--13-----------/15----13-12-|--12-----------------------|
----------------------------|---------------12------12--|
----------------------------|-------------------14------|
----------------------------|---------------------------|
----------------------------|---------------------------|


   H.            E   E      H        E   E   E   E   
------------------------|---------------------------|
------------------------|-----------------------12--|
--12------------12--14--|---------------12--14------|
------------------------|--15-----------------------|
------------------------|---------------------------|
------------------------|---------------------------|


   E   E   H        E   E      Q     Q     Q     E   E      Q     H.            
---------------------------|--------------------12------|----------------------|
---------------------------|------------------------15--|---L----12------------|
---------------------------|--------------14------------|----------------------|
--14--12--14---------------|--12----15------------------|----------------------|
-----------------------15--|----------------------------|----------------------|
---------------------------|----------------------------|----------------------|


   H        E   E   E   E      Q     Q     Q     Q     
---------------10----------|--------------------------|
--13---------------13--12--|--13----12----13----12----|
---------------------------|--------------------------|
---------------------------|--------------------------|
---------------------------|--------------------------|
---------------------------|--------------------------|


   H        E   E   E   E      E.   E.   Q.      Q     
---------------10----------|--------------------12----|
--13---------------13--12--|--13---12---10------------|
---------------------------|--------------------------|
---------------------------|--------------------------|
---------------------------|--------------------------|
---------------------------|--------------------------|


   Q     Q.      Q     S  S     H.            Q        W                 
--12------------10----------|----------------------|--------------------|
--------13------------13-12-|--12------------------|--10----------------|
----------------------------|----------------12----|--------------------|
----------------------------|----------------------|--------------------|
----------------------------|----------------------|--------------------|
----------------------------|----------------------|--------------------|


   H         H          
------------17--------||
---L------------------||
----------------------||
----------------------||
----------------------||
----------------------||


Now just repeat from after the intro.




Duration Legend
---------------
W - whole
H - half
Q - quarter
E - 8th
S - 16th
T - 32nd
L - tied note

        
Comments

@zerromus (April 02, 2008 at 12:10 AM)

I love you.


@KirbyRules (April 02, 2008 at 1:15 AM)

Thanx archard


@Kyle Ross (April 02, 2008 at 3:59 AM)

Awesomness, thanks a lot for the tab. This song is truly EPIC.


@Necromencer (April 05, 2008 at 1:19 PM)

this song is the definition of epic


@Blue Blur (April 10, 2008 at 7:41 AM)

Damn, and I almost figured it out too, XD. Anyways, it's perfect from what I can see, =D. Awesome as always dude, ^^.


@Uh-non-O-miss (April 16, 2008 at 9:15 PM)

been looking everywhere for this; tuned in standard e i presume?


@your name here (April 23, 2008 at 9:18 PM)

this is a magnetic, electric, and glorious tab


@gamingnguitar (May 13, 2008 at 1:44 AM)

Boom. awsome. just awsome.


@SamuraiDanny (June 18, 2008 at 11:15 PM)

WOOHOO, ITS THE SONG I've BEEN LOOKING FOR!!!!!!!!!!!! I just wish that the rhythm guitar was included in the tab, but this is awesome otherwise.


@barbare (July 03, 2008 at 11:33 AM)

Man you roxxxxx thanks a lot :D