Gametabs
Home
Tabs
Random

Road to Viridian City

Average rating: 4.000

1 ratings

Composer:

Tabber:

Style:

Instrument:

Created: December 01, 2008 at 12:00 AM

            Road to Viridian City
Super Smash Bros. Brawl
Composed by Junichi Masuda
Arranged by Shogo Sakai
Tabbed by hslesperance
10/24/08

Standard Tuning

e---------------------------------------------------------
B------------------------------3h5h7--7--7--3h5h7--7--7---
G---------------------------------------------------------
D---0-----0-----0---------0-------------------------------
A------0-----0-----0----0---------------------------------
E---------------------------------------------------------

e-------------3-------------------------------------------
B---3h5h7--7-------7-5--------2h3h5--5--5--2h3h5--5--5----
G---------------------------------------------------------
D---------------------------------------------------------
A---------------------------------------------------------
E---------------------------------------------------------

e-------------2----2----------5p3p2--2--2-----------------
B---2h3h5--5----5----3---------------------3h5h7--7--7----
G---------------------------------------------------------
D---------------------------------------------------------
A---------------------------------------------------------
E---------------------------------------------------------

e--------------------------3------------------3--2--0-----
B---3h5h7--7--7--3h5h7--7-------7-5----2h3h5-----------3--
G---------------------------------------------------------
D---------------------------------------------------------
A---------------------------------------------------------
E---------------------------------------------------------

e------------7--------------------5------------10--9--7---
B---2--0--2------0h2p0----2--3-----------7----------------
G----------------------2--------------------7-------------
D---------------------------------------------------------
A---------------------------------------------------------
E---------------------------------------------------------

e---9----------------------------------------10--9--7-----
B------10--7-----7-----------7h8h10----7------------------
G-------------7-----9---------------------7---------------
D---------------------------------------------------------
A---------------------------------------------------------
E---------------------------------------------------------

e---------10--9--12--10-----------------------------------
B---9-10--------------------------------------------------
G------------------------------7--------------------------
D------------------------------7--------------------------
A------------------------------5--------------------------
E---------------------------------------------------------

e---2-----------------------------------------------------
B---3----------------3h5h7--7--7--3h5h7--7--7--3h5h7--7---
G---2-----------------------------------------------------
D---------------------------------------------------------
A---------------------------------------------------------
E---------------------------------------------------------

e---3-----------------------------------------------------
B--------7-5--------2h3h5--5--5--2h3h5--5--5----2h3h5--5--
G---------------------------------------------------------
D---------------------------------------------------------
A---------------------------------------------------------
E---------------------------------------------------------

e---2----2----------------------------------------3-------
B-----5----3--------3h5h7--7--3h5h7--7--3h5h7--7----------
G---------------------------------------------------------
D---------------------------------------------------------
A---------------------------------------------------------
E---------------------------------------------------------

e--------------------------------------------2----2-------
B---7-5--------2h3h5--5--2h3h5--5--2h3h5--5----5-----3----
G---------------------------------------------------------
D---------------------------------------------------------
A---------------------------------------------------------
E---------------------------------------------------------

e-----------10-9-7-9------------------------------10-9-7--
B---10--7-------------10-7----7----------10--7-10---------
G---------7----------------7----9-------------------------
D---------------------------------------------------------
A---------------------------------------------------------
E---------------------------------------------------------

e---------10-9-12-10--------------------------------------
B---9-10----------------------10----11--------------------
G-----------------------10--------------------------------
D---------------------------------------------------------
A---------------------------------------------------------
E---------------------------------------------------------

e---------------------------------------------------------
B---6----------------8-----------------10-----------------
G---7----------------9-----------------11-----------------
D---8----------------10----------------12-----------------
A---------------------------------------------------------
E---------------------------------------------------------

e---------------------------------------------------------
B---7h8-10--8--7--------7--8--10----10h12p10-8--7-8-------
G---------------------------------------------------9-----
D---------------------------------------------------------
A---------------------------------------------------------
E---------------------------------------------------------

e---------------------------------------------------------
B---5h7-8--7--5--------5-7-8----8h10p8-7--5--7------------
G-----------------------------------------------7----4----
D---------------------------------------------------------
A---------------------------------------------------------
E---------------------------------------------------------

e---------------------------------------------------------
B---------------7h8-10--8--7--------7--8--10----10h12p10--
G------7--------------------------------------------------
D---7-----------------------------------------------------
A---------------------------------------------------------
E---------------------------------------------------------

e---------------------------------------------------------
B---8-7-8----------5h7-8--7--5--------5-7-8----8h10p8-7---
G---------9-----------------------------------------------
D---------------------------------------------------------
A---------------------------------------------------------
E---------------------------------------------------------

e---------------------------------------------------------
B---5--7--------------------------------------------------
G--------7----4-----7-------------------------------------
D----------------7--0-----0-----0---------0---------------
A----------------------0-----0-----0----0-----------------
E---------------------------------------------------------

h - hammer on
p - pull off

        
Comments

No comments yet