Gametabs
Home
Tabs
Random

Pokémon Main Theme

Average rating: 4.000

3 ratings

Composer:

Tabber:

Style:

Instrument:

Created: January 20, 2009 at 12:00 AM

            Pokémon Main Theme
Super Smash Bros. Brawl
Composed by Junichi Masuda
Arranged by Seiji Momoi
Tabbed by hslesperance
11/9/08

Drop-D Tuning

e------------------------------------------9--10--------13----
B-------7------8------7------7------7------8--10--------13----
G-------7------7------7--7-9--------7-------------------------
D-------------------------------------------------------------
A---X-X----X-X----X-X----X-X----X-X----X-X--------------------
D---X-X----X-X----X-X----X-X----X-X----X-X--------------------

e---------------------8------9--10--------10------------------
B-------7------8------8------8--10--------10------------------
G-------7------7----------------------------------------------
D-------------------------------------------------------------
A---X-X----X-X----X-X----X-X----------------------------------
D---X-X----X-X----X-X----X-X----------------------------------

e---------2-3--3--3-3-3--3--3--1-1-1-1-1-2-3------------------
B-----0-3-------------------------------------0-3-------4h5h6-
G---0--------------------------------------0------------------
D-------------------------------------------------------------
A-------------------------------------------------------------
D-------------------------------------------------------------

e-------------------------------------------------------------
B---5p4p3----4h5h6----5p4p3-----------0-3-----------------3---
G----------------------------------0-------------5--4--5------
D-------------------------------------------------------------
A-------------------------------------------------------------
D-------------------------------------------------------------

e-------------------------------------------------------------
B---4h5h6--5--4--------------------0--3--------4h5h6--5p4p3---
G---------------7--4h5h7--------0-----------------------------
D-------------------------------------------------------------
A-------------------------------------------------------------
D-------------------------------------------------------------

e-----------------------------------------------3---6-3-------
B---4h5h6--5p4p3-----------0--3--------6--5--6----------------
G-----------------------0-------------------------------------
D-------------------------------------------------------------
A-------------------------------------------------------------
D-------------------------------------------------------------

e---5----6---------------6--7--8---------------8--9--10-------
B-------------6-6-------------------8-8-----------------------
G-------------------------------------------------------------
D-------------------------------------------------------------
A-------------------------------------------------------------
D-------------------------------------------------------------

e---8--8--9-10------------8--8--7-3---------------------------
B-------------------------------------------------------------
G-------------------------------------------------------------
D--------------------------------------0--------1h2h3---------
A------------------------------------2------------------------
D---------------------------------5---------------------------

e-------------------------------------------------------------
B------------4h5h6----5p4p3-----------------------------------
G-------------------------------------------------------------
D---2p1p0-------------------------------0-----------------0---
A-------------------------------------2----------3--2--3------
D----------------------------------5--------------------------

e----------------------------------------------2h3h4----3p2p1-
B---4h5h6--5--4--------------------3--6-----------------------
G---------------7--4h5h7--------3-----------------------------
D-------------------------------------------------------------
A-------------------------------------------------------------
D-------------------------------------------------------------

e---2h3h4----3p2p1--------------------------------6----9-6----
B----------------------------3--6--------9--8--9--------------
G-------------------------3-----------------------------------
D-------------------------------------------------------------
A-------------------------------------------------------------
D-------------------------------------------------------------

e---8--9---------------9--10--11-----------------11--12--13---
B-----------9-9---------------------11-11---------------------
G-------------------------------------------------------------
D-------------------------------------------------------------
A-------------------------------------------------------------
D-------------------------------------------------------------

e---11--11--12-13--------------14-----------------------------
B-------------------------------------------------------------
G-------------------------------------------------------------
D-------------------------------------------------------------
A-------------------------------------------------------------
D-------------------------------------------------------------

X - palm mute
h - hammer on
p - pull off

        
Comments

@Ju1cee.m4n (August 07, 2009 at 2:01 AM)

the beggining doesnt sound right.