Gametabs
Home
Tabs
Random

Pokémon Center

Average rating: 5.000

1 ratings

Composer:

Tabber:

Style:

Instrument:

Created: February 06, 2009 at 12:00 AM

            Pokémon Center
Super Smash Bros. Brawl
Composed by Junichi Masuda
Arranged by Kentaro Ishizaka
Tabbed by hslesperance
10/24/08

Standard Tuning

e---8----9----8----------8------12--13---------------------------
B------------------10--------------------------------------------
G----------------------------------------------------------------
D----------------------------------------------------------------
A----------------------------------------------------------------
E----------------------------------------------------------------

e------------8----6----5----------------------5--------------5---
B---6-----6---------------8-5--------5-----5-------8----5--6-----
G------5--------------------------------5------------------------
D----------------------------------------------------------------
A----------------------------------------------------------------
E----------------------------------------------------------------

e------------8----6----5----------------------5------------------
B---6-----6---------------8-5--------5-----5-------8----5--6-----
G------5--------------------------------5------------------------
D----------------------------------------------------------------
A----------------------------------------------------------------
E----------------------------------------------------------------

e------------8----6----5----------------------5--------------5---
B---6-----6---------------8-5--------5-----5-------8----5--6-----
G------5--------------------------------5------------------------
D----------------------------------------------------------------
A----------------------------------------------------------------
E----------------------------------------------------------------

e------------8----6----5----------------------5------------------
B---6-----6---------------8-5--------5-----5-------8----5-6------
G------5--------------------------------5------------------------
D----------------------------------------------------------------
A----------------------------------------------------------------
E----------------------------------------------------------------

e---5----8----6--8--6--5-------------------5--6--5---------------
B-------------------------8------5----8-------------8--6---------
G----------------------------------------------------------------
D----------------------------------------------------------------
A----------------------------------------------------------------
E----------------------------------------------------------------

e---5----8----6--5--6--8--10------8---6--5--6----5--6--5---------
B---------------------------------------------------------8--6---
G----------------------------------------------------------------
D----------------------------------------------------------------
A----------------------------------------------------------------
E----------------------------------------------------------------

e---------------------------10-----------------------------------
B-----------------------10-----10-8--8h10p8--7h8p7---------------
G---8--7--------------------------------------------7--9---------
D----------------------------------------------------------------
A----------------------------------------------------------------
E----------------------------------------------------------------

e---5----3----2---------------------2--------------2-------------
B----------------5-2-------2-----2-----5----2--3h5---------------
G-----------------------------2----------------------------------
D----------------------------------------------------------------
A----------------------------------------------------------------
E----------------------------------------------------------------

e------------7----5----4--------------------4--------------------
B---5-----5---------------7-4------4-----4-------7----4-5--------
G------4------------------------------4--------------------------
D----------------------------------------------------------------
A----------------------------------------------------------------
E----------------------------------------------------------------

e------4----7----5--7--5h7p5-4-------------------4--5--4---------
B---7--------------------------7------4----7--------------7--5---
G----------------------------------------------------------------
D----------------------------------------------------------------
A----------------------------------------------------------------
E----------------------------------------------------------------

e--------7----------------7--9----7------------------------------
B---9-------9--10--9--10-------------10--9--10----9--10--9--7----
G--------------------------------------------------------------9-
D----------------------------------------------------------------
A----------------------------------------------------------------
E----------------------------------------------------------------

e------------7--5--4-----------------10--8--7--------------------
B---5-----5-----------7--5--8-----8------------10--8-------------
G------4-----------------------7---------------------------------
D----------------------------------------------------------------
A----------------------------------------------------------------
E----------------------------------------------------------------

e------------------------------------4--2--1---------------------
B------------6--4--3--------2-----2-----------4--2--1------------
G---3-----3-----------5--3-----1---------------------------------
D------3---------------------------------------------------------
A----------------------------------------------------------------
E----------------------------------------------------------------

h - hammer on
p - pull off

        
Comments

No comments yet