Gametabs
Home
Tabs
Random

Mother Series Victory Theme

Average rating: No ratings

Composer:

Tabber:

Style:

Instrument:

Created: May 16, 2016 at 12:00 AM

            Capo at 7

e-|--0---1--3---3---5------0--1--0-------------------------0---------------------
B-|---------------------3-------------1--3-----0---1---3------0------------------
G-|-----------------------------------------2---------------------2----0---------
D-|-------------------------------------------------------------------------3---2
A-|------------------------------------------------------------------------------
E-|------------------------------------------------------------------------------

No capo

e-|--7---8--10---10---12-------7--8--7---------------------------7----------------------
B-|------------------------10-------------8--10-----7---8---10------7-------------------
G-|----------------------------------------------9----------------------9----7----------
D-|-------------------------------------------------------------------------------10---9
A-|-------------------------------------------------------------------------------------
E-|-------------------------------------------------------------------------------------
        
Comments

No comments yet