Gametabs
Home
Tabs
Random

Menu 1

Average rating: 4.500

6 ratings

Composer:

Tabber:

Style:

Instrument:

Created: November 08, 2008 at 12:00 AM

            Menu 1
Super Smash Bros. Brawl
Composed by Nobuo Uematsu
Arranged by Shogo Sakai
Tabbed by hslesperance
10/31/08

Standard Tuning

e--------------------------------------------------------
B---2--0----------------------0--------------------0-----
G--------2-1--------------1-2---1--------------1-2---1---
D-----------------------4--------------------4-----------
A--------------------------------------------------------
E--------------------------------------------------------

e--------------------------------------------------------
B--------------------------------------------------------
G-----------------1--------------------------------------
D---1-2-4--2-1-------------------------------------------
A--------------4-----------------------------------------
E--------------------------------------------------------

e---9--7------------------------7---------------------7--
B--------10-9------------7-9-10---9------------7-9-10----
G--------------------------------------------------------
D--------------------------------------------------------
A--------------------------------------------------------
E--------------------------------------------------------

e--------------------------------------------------------
B---9----------------7-----------------------------------
G----------------8-9----9-8-9--6--------9--8--6----------
D--------------------------------------------------------
A--------------------------------------------------------
E--------------------------------------------------------

e------0-2-2-0------------------------0-2-2-0----0-2-4---
B---4----------4--4-2-2------------4----------4----------
G--------------------------------------------------------
D--------------------------------------------------------
A--------------------------------------------------------
E--------------------------------------------------------

e---2--4-5-5-4-2----4--5-7-7-5-4----6--7-9-9-7-7-6-------
B--------------------------------------------------------
G--------------------------------------------------8-----
D--------------------------------------------------------
A--------------------------------------------------------
E--------------------------------------------------------

e--------------------------------------------------------
B--------------------------------------------------------
G--------6----------------9--9-8-9-8-9----6--------------
D---6----------------------------------------------------
A--------------------------------------------------------
E--------------------------------------------------------

e---9--11-12-11-9-------------------------7--7-9-7-------
B-----------------12-10--9--9-10-9-7----------------10---
G------------------------------------9-------------------
D--------------------------------------------------------
A--------------------------------------------------------
E--------------------------------------------------------

e--------------------------------------------------------
B---9-10--7-9-10--9--7-7---9------------9--9-10-9-7------
G------------------------9---------------------------9---
D--------------------------------------------------------
A--------------------------------------------------------
E--------------------------------------------------------

e---7--7-9-7---------------------------------------------
B-------------10-9-10--7-9-10--9-7-----------------------
G----------------------------------9---------------------
D--------------------------------------------------------
A--------------------------------------------------------
E--------------------------------------------------------

        
Comments

@blablabla (July 30, 2009 at 6:24 PM)

Thank you so much! I've been looking for these tabs for so long, and you did a great job thank you!


@Newname07 (October 15, 2012 at 11:05 PM)

My favorite song to play. It awesome.