Gametabs
Home
Tabs
Random

Mario Circuit

Average rating: No ratings

Composer:

Tabber:

Style:

Instrument:

Created: October 11, 2008 at 12:00 AM

            Mario Circuit
Super Smash Bros. Brawl
Composed by Soyo Oka & Taro Bando
Arranged by Yusuke Takahama
Tabbed by hslesperance
9/21/08

Standard Tuning

e---3----4----5----6--------6----7----8----9---------10----11-----
B-----------------------------------------------------------------
G-----------------------------------------------------------------
D-----------------------------------------------------------------
A-----------------------------------------------------------------
E-----------------------------------------------------------------

e---3h5--2-------3----3h5--2----5--7----1h3--0------------1h3-----
B-------------3-----------------------------------1--3------------
G-----------------------------------------------------------------
D-----------------------------------------------------------------
A-----------------------------------------------------------------
E-----------------------------------------------------------------

e---0--1--2--3----3h5--2------------3h5--2----5--7----1h3--0------
B---------------------------3--5----------------------------------
G-----------------------------------------------------------------
D-----------------------------------------------------------------
A-----------------------------------------------------------------
E-----------------------------------------------------------------

e-----------1h3--5------------------10--8----------6----8--5------
B---1--3------------------5h6--8----------------6-----------------
G--------------------------------------------5----------------14--
D-----------------------------------------------------------------
A-----------------------------------------------------------------
E-----------------------------------------------------------------

e------15-13--20-22--20h22p20-18h20p18-17h18p17-------------------
B---13------------------------------------------18h20p18-17h18p17-
G-----------------------------------------------------------------
D-----------------------------------------------------------------
A-----------------------------------------------------------------
E-----------------------------------------------------------------

e-------------6----8--5-----------------10-8-------8-----8-12-----
B----------6---------------8-5--6--8----------8-10----10----------
G---17--5---------------------------------------------------------
D-----------------------------------------------------------------
A-----------------------------------------------------------------
E-----------------------------------------------------------------

e---10-12--13--11--------------------9--10--11----12-12--12-12----
B------------------13--11--13-------------------------------------
G-----------------------------------------------------------------
D-----------------------------------------------------------------
A-----------------------------------------------------------------
E-----------------------------------------------------------------

e---0--0--12----15--14--------------------------------0--0--12----
B----------------------15-----------15----------------------------
G-------------------------14---12---------------------------------
D-----------------------------------------------------------------
A-----------------------------------------------------------------
E-----------------------------------------------------------------

e---20--19-------------------15-------15-16-------16-17-------17--
B-----------20-----------20-----13h15-------14h16-------15h17-----
G---------------19---17-------------------------------------------
D-----------------------------------------------------------------
A-----------------------------------------------------------------
E-----------------------------------------------------------------

e---18-------18------------10--8----------6----8--5--------15-13--
B------16h18-----5h6--8----------------6----------------13--------
G-----------------------------------5----------------14-----------
D-----------------------------------------------------------------
A-----------------------------------------------------------------
E-----------------------------------------------------------------

e---20-22--20h22p20-18h20p18-17h18p17-----------------------------
B-------------------------------------18h20p18-17h18p17-----------
G-------------------------------------------------------17--------
D-----------------------------------------------------------------
A-----------------------------------------------------------------
E-----------------------------------------------------------------

e---------6----8--5----------------10-8-------8-----8-12--10-12---
B------6---------------8--5--6--8--------8-10----10---------------
G---5-------------------------------------------------------------
D-----------------------------------------------------------------
A-----------------------------------------------------------------
E-----------------------------------------------------------------

e---13--11-------------------------------12-13-14-15----16-17-----
B-----------13--11--13----13-14-15-16-----------------------------
G-----------------------------------------------------------------
D-----------------------------------------------------------------
A-----------------------------------------------------------------
E-----------------------------------------------------------------

h - hammer on
p - pull off

        
Comments

@TrangOul (October 12, 2008 at 9:40 AM)

Lol, they really put that song into SSBB? Reminds of all those hours of playing Super Mario Kart, good times. <3