Gametabs
Home
Tabs
Random

Mario Bros.

Average rating: No ratings

Composer:

Tabber:

Style:

Instrument:

Created: October 27, 2008 at 12:00 AM

            Mario Bros.
Super Smash Bros. Brawl
Composed by Yukio Kaneoka
Arranged by Shogo Sakai
Tabbed by hslesperance
10/12/08

Standard Tuning

The last measure can be played with hammer-ons if it is too fast.

e-------------------0-3----1----1----1-----------
B---1----1----1---1-----------3----3---3-0-3-----
G------0----0---0----------------------------0---
D------------------------------------------------
A------------------------------------------------
E------------------------------------------------

e---3--------0-------0-1--0-----3--------0-------
B-----------------3----------3----------------3--
G------------------------------------------------
D------------------------------------------------
A------------------------------------------------
E------------------------------------------------

e---0-1--0-------0-1-3--1-0------3-5--3-5-7------
B-----------3------------------6-----------------
G------------------------------------------------
D------------------------------------------------
A------------------------------------------------
E------------------------------------------------

e---8--------10--------8-------------------------
B------------------------------------------------
G------------------------------------------------
D------------------------------------------------
A------------------------------------------------
E------------------------------------------------

e---3--------0-------0-1--0-----3--------0-------
B-----------------3----------3----------------3--
G------------------------------------------------
D------------------------------------------------
A------------------------------------------------
E------------------------------------------------

e---0-1--0-------0-1-3--1-0------3-5--3-5-7------
B-----------3------------------6-----------------
G------------------------------------------------
D------------------------------------------------
A------------------------------------------------
E------------------------------------------------

e---8--------10--------8-------------------------
B------------------------------------------------
G------------------------------------------------
D------------------------------------------------
A------------------------------------------------
E------------------------------------------------

e---8------------------7--8--10----8--7----7-----
B------------10----------------------------------
G------------------------------------------------
D------------------------------------------------
A------------------------------------------------
E------------------------------------------------

e------------------------------------------------
B---8--------8--10--11----10--8------------------
G----------------------------------10--------7---
D------------------------------------------------
A------------------------------------------------
E------------------------------------------------

e------------------------------------------------
B--------------------------------------8---------
G---7--9--10----9--7----9------------------------
D----------------------------10-------------10---
A------------------------------------------------
E------------------------------------------------

e---8----------------------7--8----7--------7----
B------------10--------10-------------10---------
G------------------------------------------------
D------------------------------------------------
A------------------------------------------------
E------------------------------------------------

e------------------------------------------------
B---8--------8--10--11----10--8----10------------
G--------------------------------------------10--
D------------------------------------------------
A------------------------------------------------
E------------------------------------------------

e-----------------------7--8--------10--------8--
B-------8--10----8--10---------------------------
G---10-------------------------------------------
D------------------------------------------------
A------------------------------------------------
E------------------------------------------------

e-------------------0-3----1----1----1-----------
B---1----1----1---1-----------3----3---3-0-3-----
G------0----0---0----------------------------0---
D------------------------------------------------
A------------------------------------------------
E------------------------------------------------

e-------------5-7-8--8--8------------------------
B-------5-6-8------------------------------------
G---5-7------------------------------------------
D------------------------------------------------
A------------------------------------------------
E------------------------------------------------

        
Comments

No comments yet