Gametabs
Home
Tabs
Random

Trombe!

Average rating: 5.000

2 ratings

Composer:

Tabber:

Style:

Instrument:

Created: September 30, 2007 at 12:00 AM

            Trombe!/Elzam Theme SRW OG 1, 2

Intro

e-7-9-10--9-7-9-----------------0--0----2-7-5-9----10-12-14
B---------------10---12------12-10-0----2-7-5-10---12-14-15
G------------------11-----11-11----------------------------
D-------------------------11-------------------------------
A----------------------------------------------------------
E----------------------------------------------------------

Theme

e--------------2--0------------------2--0--------------
B--------2-3-0------3--------0-2-3-0------3-------3-3-2
G------4-----------------------------------------------
D----4--------------------4----------------------------
A------------------------------------------------------
E------------------------------------------------------

e--------0----------------------------------2--0-----
B-2-2-3-----2-----------------------0-2-3-0-------3--
G--------------2--0----2--0--------------------------
D---------------------------4-----4------------------
A----------------------------------------------------
E----------------------------------------------------

e-------------2--0-----------------------0-----------
B-----0-2-3-0------3----3-3-2------2-2-3---3--2---0-0
G----------------------------------------------------
D--4-------------------------------------------------
A----------------------------------------------------
E----------------------------------------------------

e-7-5-----------7--5--7-9------------------------0---0
B-----7--8----8-----------10--------10----------------
G---------------------------11----11---------------11-
D-------------------------------------12-----12-------
A-----------------------------------------------------
E-----------------------------------------------------

e-0-2--3-2--0------0--2
B-------------2--3-----
G----------------------
D----------------------
A----------------------
E----------------------

e-7-5-----------10-9----10-12----14
B-----7--8----8---------------10---
G----------------------------------
D----------------------------------
A----------------------------------
E----------------------------------

e-15-14--12-10---10-9-7-5--7----7-7-14-10-12---12-10-9
B-----------------------------------------------------
G-----------------------------------------------------
D-----------------------------------------------------
A-----------------------------------------------------
E-----------------------------------------------------

e-5-10-8---5-10-8-------3-5--6-5--3--1---10-8------10-8-12
B--------8--------8---6-6----------------10-8--8---10-8-13
G----------------------------------------------7---10-8---
D---------------------------------------------------------
A---------------------------------------------------------
E---------------------------------------------------------

e-12--13-15--13-15--17------------------10-8--12---12-12
B---------------------17----15-13-----10----------------
G-------------------------14------12--------------------
D-------------------------------------------------------
A-------------------------------------------------------
E-------------------------------------------------------

e13-15--15-18--17--15-17----------------------15----------
B-----------------------18--17-15--13-15---15-15-17--17-15
G---------------------------17-15--14-15---15----17--17-15
D---------------------------------------------------------
A---------------------------------------------------------
E---------------------------------------------------------

e----------------------------------
B-13--15---------------------------
G-14--15---------------------------
D----------------------------------
A----------------------------------
E----------------------------------

*Note: Yes, I'll be making one for each of my tabs. Hm... This song repeats
itself over and over, if you were wondering.

        
Comments

@EternalTwilight (August 13, 2007 at 7:50 PM)

Very nice.


@Anonymous (November 02, 2007 at 2:02 AM)

Awesome tabs, wonder how the tabs to Time to Come are


@Harmonixer (March 14, 2008 at 4:14 PM)

I'm just starting with guitar and this song is just amazing for learning different things. Thanks a lot for tabbing it. I love it. Let's go, Trombe!


@Ryole-0259 (March 14, 2009 at 6:38 AM)

Thia is really really good how about some more from SRW

P.S. It's from S-cry-ed