Gametabs
Home
Tabs
Random

Gleam Glacier 1

Average rating: No ratings

Composer:

Tabber:

Style:

Instrument:

Created: July 29, 2010 at 12:00 AM

                           Super Princess Peach - Gleam Glacier 1 BASS TAB
                        Composed by Akira Fujiwara

                    Tabbed by Auriplane ([email protected])


Four-string bass, standard tuning.  All quarter notes should be played
staccato, like an eighth note followed by an eighth note rest.  This
is a nice, easy song :-)


        Part A


   Q   Q   Q   Q    Q   Q   E E E E  Q   Q   Q   Q    Q   Q   E E E E
G |----------------|----------2-----|----------------|----------------|
D |----------------|------------5---|----------------|----------------|
A |3-------5-------|3-------5-------|3-------5-------|3-------5-----2-|
E |----3-------3---|----5---------3-|----3-------3---|----3-----3-5---|


   Q   Q   Q   Q    Q   Q   Q   E E  Q   Q   Q   Q    Q   Q   Q   E E
G |----------------|----------------|----------------|----------------|
D |----------------|--------------2-|3-----------3---|2---------------|
A |3-------5-------|3-------3---5---|----3-----------|----2-------2-4-|
E |----3-------3---|----3-----------|--------1-------|--------5-------|


   Q   Q   Q   Q
G |----2-----------|
D |--------5-------|
A |5---------------|
E |------------3---|


        Part B


   Q   Q   Q   Q    Q   Q   E E E E  Q   Q   Q   Q    Q   Q   E E E E
G |----------------|----------2-----|----------------|----------------|
D |----------------|------------5---|----------------|----------------|
A |3-------5-------|3-------5-------|3-------5-------|3-------5-----2-|
E |----3-------3---|----5---------3-|----3-------3---|----3-----3-5---|


   Q   Q   Q   Q    Q   Q   Q   E E  Q   Q   Q   Q    Q   Q   Q   E E
G |----------------|----------------|----------------|----------------|
D |----------------|--------------2-|3-----------3---|2---------------|
A |3-------5-------|3-------3---5---|----3-----------|----2-------2-4-|
E |----3-------3---|----3-----------|--------1-------|--------5-------|


   Q   Q   Q   Q    Q   Q   Q   Q    Q   Q   Q   Q    Q   Q   E E E E
G |----------------|----------------|----------------|----------------|
D |--------5---3---|--------6---4---|----------------|7-------7-------|
A |5---------------|6---------------|7-------7---7---|----7---------4-|
E |----5-----------|----6-----------|----7-----------|----------5-7---|


   Q   Q   Q   Q    Q   Q   Q   Q    Q   Q   Q   Q    Q   Q   Q   Q
G |----------------|----------------|----------------|----------------|
D |--------7-------|--------7-------|--------7-------|----7---5-------|
A |5---------------|5---------------|5---------------|5---------------|
E |----5-------5---|----5-------5---|----5-------5---|------------3---|


        Now repeat back to the third measure of Part A.



Duration Legend
---------------
W - whole
H - half
Q - quarter
E - 8th



        
Comments

No comments yet