Gametabs
Home
Tabs
Random

Memory

Average rating: No ratings

Composer:

Tabber:

Style:

Instrument:

Created: October 01, 2019 at 12:00 AM

            Game: Super Paper Mario
Title: Memory
Tuning: EBGDAE (Standard Tuning)

How to play: Every note should be played as a natural harmonic. All you have to do is hold your finger very lightly directly 
over the the fret and pluck the string. You can lift your finger off the string as you pluck as well to get a better sound.

Description: You can repeat 3 to the last measure indefinitely since that's where it loops in the game. The first two notes in the 7th measure 
should actually be C and D instead of D and E I just wanted to keep them natural harmonics and it still sounds close enough. 
This is in the same key as the original game.


E|-12------------------|----------------12---|---------------------|----------------12---|
B|------12-------------|-12------------------|-----------12--------|---------------------|
G|-----------7---------|------12-------------|-7--------------12---|-----------12--------|
D|----------------7----|-----------7---------|------7--------------|-7-------------------|
A|---------------------|---------------------|---------------------|------7--------------|
E|---------------------|---------------------|---------------------|---------------------|


E|---------------------|---------------------|------12-------------|-----------12--------|
B|-----------12--------|---------------------|----------------12---|---------------------|
G|-7--------------12---|-----------12--------|-7-------------------|-12------------------|
D|------7--------------|-7--------------12---|-----------7---------|------7--------------|
A|---------------------|------7--------------|---------------------|---------------------|
E|---------------------|---------------------|---------------------|---------------------|



        
Comments

No comments yet