Gametabs
Home
Tabs
Random

Overworld

Average rating: 5.000

12 ratings

Composer:

Tabber:

Style:

Instrument:

Created: April 03, 2012 at 12:00 AM

            Overworld 1                                   
Here We Go!
Super Mario World
Music By Koji Kondo


*Capo on 5th Fret



     Q    E.  S E  S Q    S    E  S S E  S S E  S S E  S S  
E||--5----------------------|--0--0-0-0--0-0-1--1-1-1--1-1-|
B||--5----6----------3----L-|--1--1-1-1--1-1-1--1-1--------|
G||-------5---5-4--5--------|--0--0-0-0--0-0-2--2-2-1--1-1-|
D||-------------------------|----------------0-------------|
A||-------------------------|--3------0--------------------|
E||-------------------------|-----------------------3------|


  E  S S E  S S E  Q.        Q    E.  S S E  Q    S  
--0--0-0-0--0-0-1--1------|--0----------------------|
--1--1-1-1--1-1-1--0------|-------1-------1--1------|
--0--0-0-0--0-0-2--1------|-----------0-2---------2-|
----------------1--0------|-------2-----3----4----L-|
--3------0----------------|--3----------------------|
--------------------------|-------------------------|


  E  E  E  E  E  S S E  S S    Q    E.  S S E  Q    S  
-----------3--0-------------|--0----------------------|
-----1--1----------3--------|-------1-------1--1------|
--0-----------------------0-|-----------0-2---------2-|
--2-----1-----0-------------|-------2-----3----4----L-|
---------------------0--2---|--3----------------------|
-----------------3----------|-------------------------|


  E  E  S S S S E  E  Q    S    Q    E.  S S E  Q    S  
--------1-0------------------|--0----------------------|
-----1------3-1------------L-|-------1-------1--1------|
--0--------------------------|-----------0-2---------2-|
------------0----------------|-------2-----3----4----L-|
--------2-------3-----3------|--3----------------------|
-----3-------------3---------|-------------------------|


  E  E  E  E  E  S S E  S S    Q    E.  S S E  Q    S  
-----------3--0-------------|--0----------------------|
-----1--1----------3--------|-------1-------1--1------|
--0-----------------------0-|-----------0-2---------2-|
--2-----1-----0-------------|-------2-----3----4----L-|
---------------------0--2---|--3----------------------|
-----------------3----------|-------------------------|


  E  E  S S S S E  E  Q    S    E.  S E  E  E.  S Q    S  
--------1-0------------------|--0-----------0------------|
-----1------3-1------------L-|------1-----------1------L-|
--0--------------------------|-----------0---------------|
------------0----------------|--------2------------------|
--------2-------3-----3------|--------------0-----3------|
-----3-------------3---------|--1------------------------|


  S S E  E.  S Q    Q    S    E.  S E  E  E.  S Q    S  
---------------------------|--0-----------0------------|
--4------4---3-----------L-|------1-----------1------L-|
----5----2-----------------|-----------0---------------|
------5--------0-----------|--------2------------------|
--6-----------------2------|--------------3------------|
---------------------------|--1-----------------3------|


  S S E  Q    E  E  E  E     Q    E.  S S E  S Q    S  
---------3----------------|--0------------------------|
--4-1---------------------|-------1-------1--1------3-|
------0-------------------|-----------0-2-------------|
--------------------------|---------------------------|
---------3-------0-----2--|--3----3-----1------1------|
--2-----------1-----3-----|---------------------------|


                                                           ^                 
  S S E  E.  S Q    Q    S    E  E  E  E  E  S S S S E     W                 
--0------------------------|--3--5--3--5--3------1-0----|-------------------|
----1--------1-------------|-------------------------3--|--1----------------|
------0--2---------------2-|-------------------0--------|--0----------------|
---------------------------|----------------------------|--2----------------|
--0------0-----------------|---------------------0---2--|--3----------------|
---------------4----4------|--3--------------3----------|-------------------|


  S E  S E  E  S S S S Q    S    S E  S E  E  Q    Q     
------------------------------|-------------------------|
--1----1----3--5-4-3-2--------|--1----1----3--5---------|
--2-2--2----4--5-4-3-2------L-|--2-2--2----4--5---------|
----3-------------------------|--0-3--------------------|
-----------------------0------|---------------3---------|
--1------1-----3--------------|---------0----------3----|


  E  E  E  E  S. T S S Q    S    S E  S E  E  Q    Q     
-----------------3-4-5--------|-------------------------|
-----1-----3--5----3--------1-|--1----1----3--1---------|
--2--2--2--4--5------6------2-|--2-2--2----2--0---------|
--3-----3---------------------|--0-3---------------2----|
-----------------------0------|---------------3----3----|
--1-----1-----3---------------|---------0---------------|


  Q    Q    E  Q    E     E  E  E  H        E     E  E  E  E  E.  S S S E   
-----------------------|-----------------------|--3--5--3--5--3------------|
--1----1-------1-------|--1--------1-----------|--0-----0-----0-----6-5-3--|
--0----0----2--0----2--|--0--2--0--0--------2--|-----5-----5--------7-5-4--|
--2----2----2--2----2--|--2--2-----2--------2--|------------------5--------|
------------3-------3--|-----3--3-----------3--|---------------------------|
-----------------------|-----------------------|---------------------------|


  H        Q    E  E      H         H            W                  
----------------8-----|-----------------------|--8----------------||
--1-------------8-----|--13S--------1S--------|--8----------------||
--0-------------9-----|-----------------------|--9----------------||
--2-------------------|-----------------------|-------------------||
--3-------------------|-----------------------|-------------------||
----------------------|-----------------------|--8----------------||




Duration Legend
---------------
W - whole
H - half
Q - quarter
E - 8th
S - 16th
. - note dotted


Tablature Legend
----------------
L - tied note
S - shift slide
^ - brush up


        
Comments

@Choogly (April 03, 2012 at 10:36 PM)

Challenging, but very well done. Great job on this arrangement.


@diralark (April 04, 2012 at 9:08 AM)

I love this tune, U gave it a very nice tab. Playing it on my guitar, I feel a bad envy to play a old Mario game (:


@Kurapika (November 11, 2012 at 3:32 PM)

I've had great fun with this tab. Fingerstyle is something I've only really tried this year and it was a fun way of learning the skill.

Although, I'm stuck on one chord in this arrangement that I just can't get to flow.

e|--------- b|-4-------(1) g|----5----(3) d|-------5-(2) a|-6-------(4) e|---------

(1 = Index, 2 = Mid, 3 = Ring, 4 = Pinky)

It might be that I've got the fingering wrong somehow, but lately I've been thinking about substituting it for.

e|------- b|-4-1--- g|-----0- d|-1----- a|------- e|-------

Isn't too much of a stretch with the capo on the 5th fret anyway.

Any guidance on this is most welcome.


@JordanVS (November 11, 2012 at 6:05 PM)

You got the fingerings right or at least how I do them XD Your substitution seems like a good way to do it,maybe it's even better that way. I believe you should do the one that feels best for you :) Anyway,follow your heart and forgive me for being of no help at all