Gametabs
Home
Tabs
Random

Training Course

Average rating: 5.000

1 ratings

Composer:

Tabber:

Style:

Instrument:

Created: March 05, 2009 at 12:00 AM

                             Yoshi's Island - Training Course BASS TAB
                            Song by Koji Kondo

                  Tabbed by auriplane ([email protected])
                              On Mar 5, 2009

This is transposed an octave down.

Four-string bass, standard tuning.

G |----------------|----------------|
D |------5-------5-|------5-------5-|
A |---5--------5---|---5--------5---|
E |3---------3-----|3---------3-----|

G |------3-------3-|------3-------3-|
D |---3--------3---|---3--------3---|
A |1---------1-----|1---------1-----|
E |----------------|----------------|

        
Comments

No comments yet