Gametabs
Home
Tabs
Random

Title Screen

Average rating: 5.000

1 ratings

Composer:

Tabber:

Style:

Instrument:

Created: March 05, 2009 at 12:00 AM

            Title Screen
Super Mario World 2
Composed by Koji Kondo
Tabbed by hslesperance
3/5/09

Standard Tuning

Guitar 1

e---10--8/10--------8-7------7--------------------------7-----
B-----------------------10-----10--8----------------8-----10--
G------------------------------------7--7------10-------------
D-------------------------------------------------------------
A-------------------------------------------------------------
E-------------------------------------------------------------

e-----------------------7-------------------------------------
B---8----------------8----10---8------------------------------
G-------7--7-9--10--------------------------------------------
D-------------------------------------------------------------
A-------------------------------------------------------------
E-------------------------------------------------------------

e---10--8/10--------8-7------7--------------------------7-----
B-----------------------10-----10--8----------------8-----10--
G------------------------------------7--7------10-------------
D-------------------------------------------------------------
A-------------------------------------------------------------
E-------------------------------------------------------------

e-----------------------7-------------------------------------
B---8----------------8----10---8------------------------------
G-------7--7-9--10--------------------------------------------
D-------------------------------------------------------------
A-------------------------------------------------------------
E-------------------------------------------------------------

e---10--8/10--------10-12-13--12-13--12-10----10------7-------
B------------------------------------------13-------------10--
G-------------------------------------------------------------
D-------------------------------------------------------------
A-------------------------------------------------------------
E-------------------------------------------------------------

e---8--7-----------7-------8-7--------------------------------
B----------8-----------10------8------------------------------
G---------------7---------------------------------------------
D-------------------------------------------------------------
A-------------------------------------------------------------
E-------------------------------------------------------------

e---10--8/10--------10-12-13--12-13--12-10----10------7-------
B------------------------------------------13-------------10--
G-------------------------------------------------------------
D-------------------------------------------------------------
A-------------------------------------------------------------
E-------------------------------------------------------------

e---8--7-----------7-------8-7--------------------------------
B----------8-----------10------8------------------------------
G---------------7---------------------------------------------
D-------------------------------------------------------------
A-------------------------------------------------------------
E-------------------------------------------------------------

e-------------------------------------------------------------
B---6----5---------8------6----5------------------------------
G---5----5-7-5-7---7------5----5-7-5-7------------------------
D----------9-7-9-----------------9-7-9------------------------
A-------------------------------------------------------------
E-------------------------------------------------------------

e-------------------------------------------------------------
B---6----5---------8------6----5------------------------------
G---5----5-7-5-7---7------5----5-7-5-7------------------------
D----------9-7-9-----------------9-7-9------------------------
A-------------------------------------------------------------
E-------------------------------------------------------------

Guitar 2

Intro - This part is quiet and hard to hard over all the waves

e---7--5--3--5-5--------------5--5----------------------------
B-----------------6--3-----3-----------3-------3--3---3-------
G-----------------------4------------4-------4------------4---
D-----------------------------------------5---------5---------
A-------------------------------------------------------------
E-------------------------------------------------------------

e-----3--5-3--------------------------------------------------
B---6--------6------------------------------------------------
G-------------------------------------------------------------
D-------------------------------------------------------------
A-------------------------------------------------------------
E-------------------------------------------------------------

Repeat throughout song
e----------------------3--------------------------------------
B------3----3---3----6----6---3-------------------------------
G-----------------4---------4---------------------------------
D---5----3----5-----------------------------------------------
A-------------------------------------------------------------
E-------------------------------------------------------------

/ - slide up

        
Comments

No comments yet