Gametabs
Home
Tabs
Random

Powerful Infant (Invincibility)

Average rating: No ratings

Composer:

Tabber:

Style:

Instrument:

Created: March 05, 2009 at 12:00 AM

                             Yoshi's Island - Powerful Infant BASS TAB
                            Song by Koji Kondo

                  Tabbed by auriplane ([email protected])
                              On Mar 5, 2009

This is the "Invincibility" song when Mario hops off Yoshi and runs around
being super and tiny ^-^

This tab has one wrong note, on purpose.  I moved the double octave slidey
thingy down an octave and made it a normal note, so that it's easy to play
on four string.  But, I included a five-string version which is correct at
the end.  Anyway, it sounds like you slide up to that note, but for the
life of me, I can't see how it's humanly possible, so I just made it a
regular note.  :-)


Four-string bass, standard tuning.

    Part A

G |----------------|----------------|----------------|----------------|
D |----------------|----------------|----------------|----------------| x4
A |5-----5-5-------|5-----5-5-------|3-----3-3-------|3-----3-3-------|
E |----------------|----------------|----------------|----------------|

    Part B

G |----------------|----------------|----------------|----------------|
D |----------------|----------------|----------------|----------------| x2
A |5----------5----|------------5---|3----------3----|------------3---|
E |------5---------|------5-5-------|------3---------|------3-3-------|

G |----------------|----------------|----------------|----------------|
D |----------------|----------------|----------------|------5---5-----|
A |5----------5----|------------5---|3----------3----|----------------|
E |------5---------|------5-5-------|------3---------|--------3---3---|

G |----------------|----------------|----------------|----------------|
D |----------------|----------------|----------------|5-5-5-5-----5---|
A |5----------5----|------------5---|3----------3----|----------------|
E |------5---------|------5-5-------|------3---------|--------3-3---3-|



Five-string bass, standard tuning.  This version has the double octave.

    Part A

G |----------------|----------------|----------------|----------------|
D |----------------|----------------|----------------|----------------|
A |----------------|----------------|----------------|----------------| x4
E |10----1010------|10----1010------|8-----8-8-------|8-----8-8-------|
B |----------------|----------------|----------------|----------------|

    Part B

G |----------------|----------------|----------------|----------------|
D |----------------|----------------|----------------|----------------|
A |----------------|----------------|----------------|----------------| x2
E |10---------10---|------------10--|8----------8----|------------8---|
B |------10--------|------1010------|------8---------|------8-8-------|

G |----------------|----------------|----------------|----------------|
D |----------------|----------------|----------------|----------------|
A |----------------|----------------|----------------|------10--10----|
E |10---------10---|------------10--|8----------8----|----------------|
B |------10--------|------1010------|------8---------|--------8---8---|

G |----------------|----------------|----------------|------------12--|
D |----------------|----------------|----------------|----------------|
A |----------------|----------------|----------------|10101010--------|
E |10---------10---|------------10--|8----------8----|----------------|
B |------10--------|------1010------|------8---------|--------8-8---8-|

        
Comments

No comments yet