Gametabs
Home
Tabs
Random

Overworld

Average rating: No ratings

Composer:

Tabber:

Style:

Instrument:

Created: March 05, 2009 at 12:00 AM

                                Yoshi's Island - Overworld BASS TAB
                            Song by Koji Kondo

                  Tabbed by auriplane ([email protected])
                              On Mar 5, 2009

There's a grace note at the very end of each line, leading into the
next.  You can leave it out if you can't pluck it fast enough, and
it sounds fine.

Four-string bass, standard tuning.

G |--------------------------------|--------------------------------|
D |--------------------------------|--------------------------------| x4
A |------------7---------------7---|8-------8---10-----------------10
E |8-------8-----------------------|--------------------------------|

G |--------------------------------|--------------------------------| \
D |--------------------------------|--------------------------------|  \
A |------------7---------------7---|8-------8---10-----------------10   |
E |8-------8-----------------------|--------------------------------|   |
                                                                        | x2
G |--------------------------------|--------------------------------|   |
D |--------------------------------|--------------------------------|   |
A |8-------8---7---------------7---|--------------------------------|  /
E |--------------------------------|10------10--8------------------8| /

G |--------------------------------|--------------------------------|
D |--------------------------------|--------------------------------| x2
A |8-------8---7---------------7---|--------------------------------|
E |--------------------------------|10------10--8------------------8|

        
Comments

No comments yet