Gametabs
Home
Tabs
Random

Map

Average rating: No ratings

Composer:

Tabber:

Style:

Instrument:

Created: March 05, 2009 at 12:00 AM

                                   Yoshi's Island - Map BASS TAB
                            Song by Koji Kondo

                  Tabbed by auriplane ([email protected])
                              On Mar 5, 2009

The map song changes every world.  But the bassline is mostly the same.
For the first four worlds, it's like this:

G |--------4--5----|7---5---4-------|--------4--5----|7---5-----------|--------|
D |5---7-----------|-----------7----|5---7-----------|--------8--6--5-|--------|
A |----------------|----------------|----------------|----------------|--------|
E |----------------|----------------|----------------|----------------|--------|

On worlds five and six, it plays the same notes, but an octave down, 
and it sounds more like slap bass:

G |----------------|----------------|----------------|----------------|--------|
D |----------------|----------------|----------------|----------------|--------|
A |--------2--3----|5---3---2-------|--------2--3----|5---3-----------|--------|
E |3---5-----------|-----------5----|3---5-----------|--------6--4--3-|--------|

And when the map is complete, it gets slappier:

G |----------------|-7--------------|----------------|-7--------------|--------|
D |-5--------------|----------------|-5--------------|----------------|--------|
A |--------2--3----|5-5-3---2-------|--------2--3----|5-5-3-----------|--------|
E |3-3-5-----------|-----------5----|3-3-5-----------|--------6--4--3-|--------|

If you're playing along with the soundtrack, play the first one eight times,
the second one four times, and then the last one until it ends.
        
Comments

No comments yet