Gametabs
Home
Tabs
Random

Kamek

Average rating: 5.000

3 ratings

Composer:

Tabber:

Style:

Instrument:

Created: July 11, 2012 at 12:00 AM

            Kamek
Super Mario World 2: Yoshi's Island
Composed by Koji Kondo
Tabbed by hslesperance
7/11/12

Standard Tuning


  e e e E e e e E    e e e E +Q    Q
|-3-3-3-3----------|-3-3-3-3-(3)--15\--|
|-3-3-3-3----------|-3-3-3-3-(3)-------|
|------------------|-------------------|
|---------5-5-5-5\-|-------------------|
|------------------|-------------------|
|------------------|-3-3-3-3-(3)-------|


    Q   e e e e Q    Q   e e e e Q    Q   e e e e Q    Q   e e e e Q
||-----------------|-----1-------1--|----------------|-----1-------1------||
||o-----1----------|-------1-4-4----|-----1----------|-------1-4-4-----1-o||
||--------0-3-3-0--|-------3-5-5-3--|-------0-3-3-0--|-------3-5-5-3-3----||
||--------2-3-3-2--|-3--------------|-------2-3-3-2--|-3------------------||
||o-3--------------|----------------|-3--------------|-------------------o||
||-----------------|----------------|----------------|--------------------||
    Q.    e e e Q    Q.    e e e Q    Q.    e e e Q    Q.    e e e E S S

\ - slide down

Q - quarter
E - 8th
S - 16th
+ - note tied to previous
. - note dotted

Uncapitalized letters represent notes that are staccato (1/2 duration)
Low melody durations appear below the staff
        
Comments

@ForestMarth (July 12, 2012 at 2:13 PM)

I like these kind of little tabs !


@diralark (July 13, 2012 at 9:05 AM)

btw about :

|-----1-------1--|
|-------1-4-4----|
|-------3-5-5-3--|
|-3--------------|
|----------------|
|----------------|

Is it rude or it's only me who can't play it ? T_T

So i need to detune it (-3 semitone), it became :

Untitled (Capo 3)
II -]

E  E  E  E  E  E  E  E      E  E  E  E  Q     Q          Q    E  E  E  E  Q
E||--0--0--0--0---------------|--0--0--0--0--L----12\----||-------------------------|
B||--0--0--0--0---------------|--0--0--0--0--L-----------||-------------------------|
G||---------------------------|--------------------------||*-------2-----0--0-------|
D||---------------------------|--------------------------||*----------2--0--0--2----|
A||--------------7--7--7--7\--|--------------------------||---0-------4--------4----|
E||---------------------------|--0--0--0--0--L-----------||-------------------------|

II -]

Q    E  E  E  E  Q       Q    E  E  E  E  Q       Q    E  E  E  E  E  S S
------------------------|------------------------|---------------------------||
-------3-----1--1--3----|------------------------|-------3-----1--1--3-------||
----------0--2--2--0----|-------2-----0--0-------|----------0--2--2--0--0-2-*||
--0---------------------|----------2--0--0--2----|--0-----------------------*||
------------------------|--0-------4--------4----|---------------------------||
------------------------|------------------------|---------------------------||

& Before u ask, YES I can play it like that :D (I'm not so weak :P)